Cifra Club

A Lenda

Roupa Nova

Cifra: Principal
exibições 392.595
Tom: G#
[Intro]  Em  C  G  D

 E                 A    B
Bem lá no céu uma lua existe
 E                 A      B
Vivendo só no seu mundo triste
      G#             C#m      A
O seu olhar sobre a Terra lançou
 F#m7      E/G#     B4   B
Veio procurando por amor

E                    A     B
Então o mar, frio e sem carinho
 E                  A     B
Também cansou de ficar sozinho
 G#                     C#m     A
Sentiu na pele aquele brilho tocar
   F#m      E/G#         B4   B
E Pela lua foi se apaixonar

 F#m                           E/G#
Luz que banha a noite e faz o sol adormecer
 F#/A#                B4  B
Mostra como eu amo você

            Em       C
Se a lenda dessa paixão
        G             D
Faz sorrir ou faz chorar
Em        C       G   B7
O coração é quem sabe
          Em      C
Se a lua toca no mar
     G          D
Ela pode nos tocar
  C
Pra dizer que o amor
         B4  B7
não se acabe

[Solo]  Fm  Db  Ab  Eb  Fm  Db  C4  C

E|--------------------------|----------------------------------------------|
B|-----5--7--7/9--8--6--6~--|--4h6p4h6p4-----------------------------------|
G|--4-----------------------|-------------6--5--3--5/6--5--3~--------------|
D|--------------------------|----------------------------------------------|
A|--------------------------|----------------------------------------------|
E|--------------------------|----------------------------------------------|

E|---------------------------------------|---------------------6-----------|
B|----------------4----------------------|----------4--6--6/8-----8--6--5~-|
G|--1--3--3/5--5-----5/3--1-----3/5--1~--|--1--3/5-------------------------|
D|---------------------------3-----------|---------------------------------|
A|---------------------------------------|---------------------------------|
E|---------------------------------------|---------------------------------|

 F                Bb     C
Se cada um faz a sua história
F                   Bb     C
A nossa pode ser feliz também
 A                    Dm       Bb
Se o coração diz que sim à paixão
 Gm7            F/A      C4  C
Como pode o outro dizer não?

 Gm                            F/A
Luz que banha a noite e faz o sol adormecer
 G/B                C4  C
Mostra como eu amo você

            Fm       C#
Se a lenda dessa paixão
        Ab            Eb
Faz sorrir ou faz chorar
Fm        C#        Ab  C7
O coração é quem sabe
          Fm      C#
Se a lua toca no mar
     Ab         Eb
Ela pode nos tocar
  C#
Pra dizer que o amor
         C4  C7
Não se acabe

Fm  Db  Ab  Eb  Fm  Db  C4  C

            Fm       C#
Se a lenda dessa paixão
        Ab            Eb
Faz sorrir ou faz chorar
Fm        C#      Ab  C7
O coração é quem sabe
          Fm      C#
Se a lua toca no mar
     Ab         Eb
Ela pode nos tocar
  C#
Pra dizer que o amor
         C4  C7
Não se acabe

D  C#  D  C#

            F#m      D
Se a lenda dessa paixão
        A             E
Faz sorrir ou faz chorar
F#m    D          A   C#7
O coração é quem sabe
          F#m     D
Se a lua toca no mar
     A          E
Ela pode nos tocar
  D
Pra dizer que o amor
         C#4  C#7
Não se acabe

F#
Acordes para:
    Composição: Ricardo FeghaliColaboração e revisão:

    0 comentários

      mostrar mais comentários

      Conseguiu tocar?

      16tocaram1ainda não

      Grave um vídeo tocando A Lenda e mande pra gente!

      00:00 / 00:00
      outros vídeos desta música
      repetirqualidadeautomática
      Outro vídeos desta música
        00:00 / 00:00
        automática
        OK