Cifra Club

naja

RPM

Cifra: Principal (violão e guitarra)
Selo Cifra Club: esta cifra foi revisada para atender aos critérios oficiais da nossa Equipe de Qualidade.
tom: Am
 PRIMEIRA PARTE :

E|-------8--5-4-8---------------------------------------------|-
B|-------------------------------------------------|
G|--0--0--1-0----0--2---1-----0--0--|-
D|---------------------------------------------------------|-
A|----------------------------------------------------------|-
E|----------------------------------------------------------|-

SEGUNDA PARTE :

E|-------0--1-4-2---------------------------------------------|-
B|-------------------------------------------------|
G|--0--0--1-0-0---0--2---1---0--0--0--|-
D|---------------------------------------------------------|-
A|----------------------------------------------------------|-
E|----------------------------------------------------------|-

ULTIMA PARTE :

E|-------0--5-0-2---------------------------------------------|-
B|-------------------------------------------------|
G|--0--0--1-0--0--0--2--0-1---0--0--0--|-
D|---------------------------------------------------------|-
A|----------------------------------------------------------|-
E|----------------------------------------------------------|-
00:00 / 00:00
Outros vídeos desta música
Repetir
Outros vídeos desta música
6.335 exibições
    • ½ Tom
    • Am
    • Bbm
    • Bm
    • Cm
    • C#m
    • Dm
    • Ebm
    • Em
    • Fm
    • F#m
    • Gm
    • G#m
  • Adicionar à lista

Afinação da cifra

Afinador online

    0 comentários

    Ver todos os comentários

    Entre para o Cifra Club PRO

    Tenha acesso a benefícios exclusivos no App e no Site

    • Chega de anúncios

    • Mais recursos no app do Afinador

    • Atendimento Prioritário

    • Aumente seu limite de lista

    • Ajude a produzir mais conteúdo

    00:00 / 00:00

    Cifra Club Pro

    Aproveite o Cifra Club com benefícios exclusivos e sem anúncios
    Cifra Club Pro
    Aproveite o Cifra Club com benefícios exclusivos e sem anúncios
    OK