Cifra Club

Olhar 43

RPM

Cifra: Principal (violão e guitarra)
Selo Cifra Club: esta cifra foi revisada para atender aos critérios oficiais da nossa Equipe de Qualidade.
tom: A
Intro: (C5 G5  Bb5  F5)

E|-----------------------------------------------|
B|-----------------------------------------------|
G|----5---5----------------3---3-----------------|
D|-------------5-2-3-5/-------------3-2-3--3/5---| (3x)
A|--3---3---3------------1---1---1---------------|
E|-----------------------------------------------|

(Eb)

 Eb
Seu corpo é fruto proibido
           Cm
É a chave de todo pecado
                  Bb
E da libido, prum garoto introvertido
  Ab  Bb       Eb
Como eu, é pura perdição

É um lago negro o seu olhar
         Cm
É água turva de beber,se envenenar
          Bb     Ab        Bb
Nas suas curvas derrapar, sair da estrada
    Eb
    E morrer no mar, (no mar)


Interlúdio:
     Eb5                     C5  Bb5

E|-------------------------------------|
B|-------------------------------------|
G|--8-x-x-8-x-x-8-x-8-x-x--------------|
D|--8-x-x-8-x-x-8-x-8-x-x--10---8------| (4x)
A|--6-x-x-6-x-x-6-x-6-x-x--10---8------|
E|-------------------------8----6------|

( C5  G5     Bb5     F5 )
   P.M.......            P.M......
E|-----------------------------------------------|
B|-----------------------------------------------|
G|----5---5----------------3---3-----------------|
D|-------------5-2-3-5/-------------3-2-3--3/5---| (3x)
A|--3---3---3------------1---1---1---------------|
E|-----------------------------------------------|

(Eb)

Eb
É perigoso o seu sorriso,
        Cm
É um sorriso assim jocoso
           Bb
Impreciso, diria misterioso,
  Ab      Bb       Eb
Indecifrável riso de mulher

Não sei se é caça ou caçadora,
         Cm
Se é Diana ou Afrodite ou se é Brigite,
       Bb       Ab
Stephani de Mônaco, aqui estou
  Bb        Eb
Inteiro ao seu dispor....(princesa)

(4x):
     Eb5                     C5  Bb5

E|-------------------------------------|
B|-------------------------------------|
G|--8-x-x-8-x-x-8-x-8-x-x--------------|
D|--8-x-x-8-x-x-8-x-8-x-x--10---8------|
A|--6-x-x-6-x-x-6-x-6-x-x--10---8------|
E|-------------------------8----6------|

F     Dm   Bb
 Pobre de mim,  invento
C     F     C
rimas assim pra você
   Dm   Bb    Eb
E um outro vem em cima
            C
E você nem pra me escutar...

 Eb
Pois acabou, não vou rimar coisa nenhuma
Cm
Agora vai como sair
           Bb
Eu já não  quero nem saber
    Ab     Bb      Eb
Se vai caber ou vão me censurar (será)
 Eb
E pra vocês eu deixo apenas
     Cm
Meu olhar 43 Aquele assim meio de lado
Bb
Já saindo
    Ab  Bb       Eb
Indo embora, louco por vocês  Gracinhas

Final:

4x:
     Eb5                     C5  Bb5

E|-------------------------------------|
B|-------------------------------------|
G|--8-x-x-8-x-x-8-x-8-x-x--------------|
D|--8-x-x-8-x-x-8-x-8-x-x--10---8------|
A|--6-x-x-6-x-x-6-x-6-x-x--10---8------|
E|-------------------------8----6------|
               
Que disperdício
00:00 / 00:00
Outros vídeos desta música
Repetir
Outros vídeos desta música
799.641 exibições
    • ½ Tom
    • A
    • Bb
    • B
    • C
    • Db
    • D
    • Eb
    • E
    • F
    • F#
    • G
    • Ab
  • Adicionar à lista

Afinação da cifra

Afinador online

    0 comentários

    Ver todos os comentários

    Entre para o Cifra Club PRO

    Tenha acesso a benefícios exclusivos no App e no Site

    • Chega de anúncios

    • Mais recursos no app do Afinador

    • Atendimento Prioritário

    • Aumente seu limite de lista

    • Ajude a produzir mais conteúdo

    00:00 / 00:00

    Cifra Club Pro

    Aproveite o Cifra Club com benefícios exclusivos e sem anúncios
    Cifra Club Pro
    Aproveite o Cifra Club com benefícios exclusivos e sem anúncios
    OK