Cifra Club

Rainha

RPM

Cifra: Versão 2 (violão e guitarra)
Selo Cifra Club: esta cifra foi revisada para atender aos critérios oficiais da nossa Equipe de Qualidade.
tom: C
E|----------------------------------------------- ----------------------------------------------|
B|-----------5---------5~-6-------5h6------------ ------------5---------5~-6-------5h6----------|
G|----5--5-------5~----------7--------7----5----- -------5-------5~----------7--------7----5---|
D|--7--7---7---7--------------7---------7----7--- -----7---7---7--------------7---------7----7-|
A|----------------------------------------------- ----------------------------------------------|
E|----------------------------------------------- ----------------------------------------------|

Am                        F
Vem como uma chuva de verão, atenção
Am                         F
Vem como um relâmpago no céu, um trovão 
G                   Am
Vem súbito e intenso como um sinal 
G                   F
Vem como uma mulher, como um vendaval 

C
Lábios cor de vinho tinto 
Am                              G
Sabe o que estou sentindo e tem 
              F
Olhos da cor do verão E você vê 
C
Claro como a luz do dia 
Am                    G
Ela é uma rainha e tem 
               F
Tanto amor no coração
 
E|----------------------------------------------- ----------------------------------------------|
B|-----------5---------5~-6-------5h6------------ ------------5---------5~-6-------5h6----------|
G|----5--5-------5~----------7--------7----5----- -------5-------5~----------7--------7----5---|
D|--7--7---7---7--------------7---------7----7--- -----7---7---7--------------7---------7----7-|
A|----------------------------------------------- ----------------------------------------------|
E|----------------------------------------------- ----------------------------------------------|

Am                       F
Vem quando você já não sabia porque 
Am                    F
Nem pra onde ir e nem o que fazer 
G                Am
Vem rápido e preciso E você vê 
G                      F
Vem, como um aviso do que pode ser 
Repete refrão
G                       Am
Vem, a coisa mais bonita Que você já viu 
G             Am                  A
Vem e tem o poder de mudar a sua vida 

C
Lábios cor de vinho tinto 
Am                              G
Sabe o que estou sentindo e tem 
              F
Olhos da cor do verão E você vê 
C
Claro como a luz do dia 
Am                    G
Ela é uma rainha e tem 
               F
Tanto amor no coração
Outros vídeos desta música
    150 exibições
      • ½ Tom
      • A
      • Bb
      • B
      • C
      • Db
      • D
      • Eb
      • E
      • F
      • F#
      • G
      • Ab
    • Adicionar à lista

    Afinação da cifra

    Afinador online

      0 comentários

      Ver todos os comentários

      Entre para o Cifra Club PRO

      Tenha acesso a benefícios exclusivos no App e no Site

      • Chega de anúncios

      • Badges exclusivas

      • Mais recursos no app do Afinador

      • Atendimento Prioritário

      • Aumente seu limite de lista

      • Ajude a produzir mais conteúdo

      Cifra Club Pro

      Aproveite o Cifra Club com benefícios exclusivos e sem anúncios
      Cifra Club Pro
      Aproveite o Cifra Club com benefícios exclusivos e sem anúncios
      OK