Explodir

Rubel

Composição de: Rubel
tom: A
[Intro] A  D/F#  E/G#

E|------------------------------------------------------------------------------------------|
B|-----------------------------7-----5------------------------3---------5--------3----------|
G|-----------2-----4-----6----6-----6------4----2----------------2------2-----------2-------|
D|----------2-----4-----6-----------------4-----4----------4--------4---4-----4--------4----|
A|----0-----------------------------------------0-------------------------------------------|
E|------------------------------------------------------------------------------------------|

E|------------------------------------------------------------------------------------------|
B|----------------5-----5~-----5-----------------------9------------------------------------|
G|---2/4---4---4-----4------------4-----------4----6----------------------------------------|
D|---4/6---6----------------6--------6-------6----6-------------6-------4-------2-----------|
A|---0-----0-----------------------------0-------------0---(0)-----(0)-----(0)--------------|
E|------------------------------------------------------------------------------------------|

E|------------------------------------------------------------------------------------------|
B|-----------------------------7-----5------------------------3---------5--------3----------|
G|-----------2-----4-----6----6-----6------4----2----------------2------2-----------2-------|
D|----------2-----4-----6-----------------4-----4----------4--------4---4-----4--------4----|
A|----0-----------------------------------------0-------------------------------------------|
E|------------------------------------------------------------------------------------------|

E|------------------------------------------------------------------------------------------|
B|----------------5-----5~-----5--------------------------9---------------------------------|
G|---2/4---4---4-----4------------4------------6--4----6--------6------4-----2--------------|
D|---4/6---6----------------6--------6------6-------6--------6-----6-----6-----------------|
A|---0-----0-----------------------------0----------------0------------0-----0--------------|
E|------------------------------------------------------------------------------------------|

A             D/F#          E/G#
Pode ser que a gente acorde
       A
Fartos, deu
             D/F#           E/G#
Ou que o tempo, de atrasar
        A
Se esquecer
            D/F#            E/G#
E o universo, de ajudar
      A
Se cansar

Mas, não importa
   D/F#   E/G#   A
Eu entrego tudo meu
             D/F#              E/G#
Que esse mundo que é só nosso
   A
Já valeu

  D7M(9)          C#m        Cm
E ainda que nos tirassem
   Bm                 E7
A força do outro, e de um
    D5            C#m        Cm
Poderíamos ser gigantes
    Bm         E7
Num último acorde

D/F#  E/G#  A
Vem, vem, vem
Bm7           D     C#m
Deixa eu explodir
         Bm          E7
Deixa eu te derreter mais

D/F#       E/G#      A
Deixa eu explodir
                  Bm7
Que eu vou te derreter mais
  D         C#m   Bm
Deixa eu explodir
                    E7
Que eu vou te derreter mais

A               D/F#             E/G#
Que eu te quero a todo instante
    A
Fica mais
                 D/F#            E/G#
Que esse mundo que é só nosso
   A
Já valeu

  D7M(9)          C#m        Cm
E ainda que nos tirassem
   Bm                 E7
A força do outro, e de um
    D5            C#m        Cm
Poderíamos ser gigantes
    Bm         E7
Num último acorde

D/F#  E/G#  A
Vem, vem, vem
Bm7           D     C#m
Deixa eu explodir
         Bm          E7
Deixa eu te derreter mais

D/F#       E/G#      A
Deixa eu explodir
                  Bm7
Que eu vou te derreter mais
  D         C#m   Bm
Deixa eu explodir
                    E7
Que eu vou te derreter mais
Página 1 / 1

Letras e título
Acordes e artista

resetar configurações
OK