Cifra Club

Aprenda

Explodir

Rubel

Cifra: Principal (violão e guitarra)
tom: A
[Intro] A  D/F#  E/G#

E|------------------------------------------------------------------------------------------|
B|------------------------------------------------------------------------------------------|
G|----------2-----4-----6-------7----5------------------------------------------------------|
D|----------2-----4-----6-------6----6----6-------------------------------------------------|
A|----0------------------0------------------------------------------------------------------|
E|------------------------------------------------------------------------------------------|

E|------------------------------------------------------------------------------------------|
B|-------------------------3---------------------------------5------------------------------|
G|----------2-----2--------------2-----------------4----------------4-----------------------|
D|---------------------0---------------------------------2----------------------------------|
A|-----------------------------------------------------------------------------------0------|
E|----------2-------------------2-----2--2h4-------------------4-------4--------------------|

E|------------------------------------------------------------------------------------------|
B|----------------5-------------------------------------------------------------------------|
G|-----6------------------6-----------------------------------------------------------------|
D|-----------7-------7-------7--------------------------------------------------------------|
A|-------------------------------------0----------------------------------------------------|
E|------------------------------------------------------------------------------------------|

A             D/F#          E/G#
Pode ser que a gente acorde
       A
Fartos, deu
             D/F#           E/G#
Ou que o tempo, de atrasar
        A
Se esquecer
            D/F#            E/G#
E o universo, de ajudar
      A
Se cansar

Mas, não importa
   D/F#   E/G#   A
Eu entrego tudo meu
             D/F#              E/G#
Que esse mundo que é só nosso
   A
Já valeu

  D7M(9)          C#m        Cm
E ainda que nos tirassem
   Bm                 E7
A força do outro, e de um
    D5            C#m        Cm
Poderíamos ser gigantes
    Bm         E7
Num último acorde

D/F#  E/G#  A
Vem, vem, vem
Bm7           D     C#m
Deixa eu explodir
         Bm          E7
Deixa eu te derreter mais

D/F#       E/G#      A
Deixa eu explodir
                  Bm7
Que eu vou te derreter mais
  D         C#m   Bm
Deixa eu explodir
                    E7
Que eu vou te derreter mais

A               D/F#             E/G#
Que eu te quero a todo instante
    A
Fica mais
                 D/F#            E/G#
Que esse mundo que é só nosso
   A
Já valeu

  D7M(9)          C#m        Cm
E ainda que nos tirassem
   Bm                 E7
A força do outro, e de um
    D5            C#m        Cm
Poderíamos ser gigantes
    Bm         E7
Num último acorde

D/F#  E/G#  A
Vem, vem, vem
Bm7           D     C#m
Deixa eu explodir
         Bm          E7
Deixa eu te derreter mais

D/F#       E/G#      A
Deixa eu explodir
                  Bm7
Que eu vou te derreter mais
  D         C#m   Bm
Deixa eu explodir
                    E7
Que eu vou te derreter mais
Composição de Rubel
Colaboração e revisão:
  • Vitor Shaid
6.423 exibições
    • ½ Tom
    • A
    • Bb
    • B
    • C
    • Db
    • D
    • Eb
    • E
    • F
    • F#
    • G
    • Ab
  • Adicionar à lista

    0 comentários

    Ver todos os comentários

    Conseguiu tocar?

    4 Tocaram 1 Ainda não

    Grave um vídeo tocando Explodir e nos envie!

    00:00 / 00:00
    outros vídeos desta música
    repetir qualidade Automático
    Outros vídeos desta música
    00:00 / 00:00
    Automático

    Cifra Club Pro

    Aproveite o Cifra Club com benefícios exclusivos e sem anúncios
    Cifra Club Pro
    Aproveite o Cifra Club com benefícios exclusivos e sem anúncios
    OK