Cifra Club

Aprenda

Decency

Rufio

Tab de baixo: Principal
DROP D (DADG)

~ - Let Ring 
x - Mute Note
h - Hammer On
p - Pull Off

This song is easy to play, only you need to learn the notes of the tab and play this excellent song.

  Intro

G|-----------------|
D|-----------------|
A|-----------------|
D|---11-9-7-6~-----|

  Verse
  "Feeling locked up and...."

G|-----------------------------|
D|-----------------------------|
A|----------------5555555555---|
D|--444444-222222--------------|

G|------------------------------------|
D|------------------------------------|
A|------------------------------------|
D|--44444444444-2222222-11-9-7-6~-----|

G|-----------------------------|
D|-----------------------------|
A|----------------5555555555---|
D|--444444-222222--------------|

G|------------------------------|
D|------------------------------|
A|------------------------------|
D|--44444444444-22222222222-----|

  Pre-chorus
  "Sometimes I feel like...."

G|--------------------------------------------------------|
D|--------------------------------------------------------|
A|--9999-7-----------9999-7----------9999-7---------------|
D|--------77-777-7---------7-7-7-7---------77-777-7-------|

G|-----------------|
D|-----------------|
A|-----------------|
D|--2~----7777777--|

G|--------------------------------------------------------|
D|--------------------------------------------------------|
A|--9999-7-----------9999-7----------9999-7---------------|
D|--------77-777-7---------7-7-7-7---------77-777-7-------|

G|-----------------|
D|-----------------|
A|-----------------|
D|--2~-----2x------|

  Chorus
  "My decency is bleeding red...."

G|-----------------------------------------|
D|-----------------------------------------| X2
A|----------777777759999999755555555-------|
D|--77777779-------------------------------|

  Post-chorus
  "Thoughts we defined...."

G|------------------------------------------|
D|------------------------------------------|
A|------------------------------------------|
D|--77777777-66666666-44444444-22222222-----|

G|---------------------------------------|
D|---------------------------------------|
A|---------------------------------------|
D|--0000000000000000-2222222222222222----|

  Outro

G|---------------------|
D|---------------------|
A|--4-0-5~----4-0------|
D|----------------2~---|

Verse
  "Feeling locked up and...."

G|-----------------------------|
D|-----------------------------|
A|----------------5555555555---|
D|--444444-222222--------------|

G|------------------------------------|
D|------------------------------------|
A|------------------------------------|
D|--44444444444-2222xx22xx222xx22x----|

G|-----------------------------|
D|-----------------------------|
A|----------------5555555555---|
D|--444444-222222--------------|

G|------------------------------|
D|------------------------------|
A|------------------------------|
D|--44444444444-22222222222-----|

  Pre-chorus
  "Sometimes I feel like...."

G|--------------------------------------------------------|
D|--------------------------------------------------------|
A|--9999-7-----------9999-7----------9999-7---------------|
D|--------77-777-7---------7-7-7-7---------77-777-7-------|

G|-----------------|
D|-----------------|
A|-----------------|
D|--2~----7777777--|

G|--------------------------------------------------------|
D|--------------------------------------------------------|
A|--9999-7-----------9999-7----------9999-7---------------|
D|--------77-777-7---------7-7-7-7---------77-777-7-------|

G|---------|
D|---------|
A|---------|
D|--2~-----|

  Chorus
  "My decency is bleeding red...."

G|-----------------------------------------|
D|-----------------------------------------| X2
A|----------777777759999999755555555-------|
D|--77777779-------------------------------|

  Post-chorus
  "Thoughts we defined...."

G|------------------------------------------|
D|------------------------------------------|
A|------------------------------------------|
D|--77777777-66666666-44444444-22222222-----|

G|---------------------------------------|
D|---------------------------------------|
A|---------------------------------------|
D|--0000000000000000-2222222222222222----|

  Bridge

G|------------------------------------------|
D|------------------------------876~--6x----|
A|----5~-87h8p6-------674---5~-8------------|
D|--4~------------4~-7----------------------|

  Solo

G|-----------------------------------------------|
D|-----------------------------------------------|
A|-----------------------------555555555---------|
D|--44444-4444-4444444444-4444-----------77777---|

G|-----------------------------------------------------|
D|-----------------------------------------------------|
A|-----------------------------------555555555---------|
D|--6666-44444-4444-4444444444-4444------------77777---|

G|----------|
D|----------|
A|----------|
D|--2222x---|

  Chorus
  "My decency is bleeding red...."

G|----------|
D|----------|
A|----------|
D|--4-6-7x--|

G|-----------------------------------------------|
D|-----------------------------------------------|
A|-----------------------------------------------|
D|--0000000-2222222-4-6-7-2x-0000000-2222222-----|

  Post-chorus
  "Thoughts we defined...."

G|------------------------------------------|
D|------------------------------------------|
A|------------------------------------------|
D|--77777777-66666666-44444444-22222222-----|

G|---------------------------------------|
D|---------------------------------------| X2
A|---------------------------------------|
D|--0000000000000000-2222222222222222----|

  Outro

G|---------------------|
D|---------------------|
A|--4-0-5~----4-0------|
D|----------------2~---|


If you have any questions,comments or corrections......* 
I wait your comments about this tab.
Composição de Jon Berry / Rufio / Scott Sellers
287 exibições

0 comentários

Mostrar mais comentários

Conseguiu tocar?

0 Tocaram 0 Ainda não

Grave um vídeo tocando Decency e mande pra gente!

00:00 / 00:00
outros vídeos desta música
repetir qualidade Automático
Outros vídeos desta música
00:00 / 00:00
Automático

Cifra Club Pro

Aproveite o Cifra Club com benefícios exclusivos e sem anúncios
7 dias grátis
Cifra Club Pro
Aproveite o Cifra Club com benefícios exclusivos e sem anúncios
7 dias grátis
OK