Cifra Club

Still

Rufio

Tab de baixo: Principal
                          Still                                       


                                                                       
Bass



                                                                         
G||--------------6---9-----------6---|--------------6---9-----------6---|
D||------7---9-----------7---9-------|------7---9-----------7---9-------|
A||--0-0---0---0---0---0---0---0---0-|--7-7---7---7---7---7---7---7---7-|
E||----------------------------------|----------------------------------|


                                                                      
------2---4---6---9---2---4---6---|------2---4---6---9---7---6-7h6---|
--0-0---0---0---0---0---0---0---0-|--0-0---0---0---0---0---0-------0-|
----------------------------------|----------------------------------|
----------------------------------|----------------------------------|


                                                                      
--------------6---9-----------6---|--------------6---9-----------6---|
------7---9-----------7---9-------|------7---9-----------7---9-------|
--0-0---0---0---0---0---0---0---0-|--7-7---7---7---7---7---7---7---7-|
----------------------------------|----------------------------------|


                                                                      
------2---4---6---9---2---4---6---|------2---4---6---9---7---6-7h6---|
--0-0---0---0---0---0---0---0---0-|--0-0---0---0---0---0---0-------0-|
----------------------------------|----------------------------------|
----------------------------------|----------------------------------|


                                                                        
|-----------------------------------|----------------------------------|
|*----------------------------------|----------------------------------|
|*----------------------------------|----------------------------------|
|---2-2-2-2-2-2-2-2-2-2-2-2-2-2-2-2-|--0-0-0-0-0-0-0-0-0-0-0-0-0-0-0-0-|


                                   
----------------------------------|
----------------------------------|
--5-5-5-5-5-5-5-5-5-5-5-5-5-5-5-5-|
----------------------------------|


                                                   
-------------------------------------------------||
------------------------------------------------*||
--12-12-12-12-12-12-12-12-12-12-12-12-11-12-----*||
--------------------------------------------12---||


                                                                   
-----------------------------||-----------------------------------|
-----------------------------||*----------------------------------|
--5-5-5-5-5-5-5-5-5---5---5--||*----------------------------------|
-----------------------------||---2-2-2-2-2-2-2-2-0-0-0-0-0-0-0-0-|


                                                                      
----------------------------------|----------------------------------|
----------------------------------|----------------------------------|
--5-5-5-5-5-5-5-5-5-5-5-5-5-5-5-5-|----------------------------------|
----------------------------------|--2-2-2-2-2-2-2-2-0-0-0-0-0-0-0-0-|


                                     
-----------------------------------||
----------------------------------*||
--5-5-5-5-5-5-5-5-5-5-5-5-5-5-5-5-*||
-----------------------------------||




_______________________________________________________
Contribuição: Arthur Paes(chapolin_hemp@hotmail.com)
Composição de Rufio
4.176 exibições

0 comentários

Ver todos os comentários

Conseguiu tocar?

0 Tocaram 0 Ainda não

Grave um vídeo tocando Still e nos envie!

00:00 / 00:00
Outros vídeos desta música
Repetir Qualidade Automático
Outros vídeos desta música
00:00 / 00:00
Automático

Cifra Club Pro

Aproveite o Cifra Club com benefícios exclusivos e sem anúncios
Cifra Club Pro
Aproveite o Cifra Club com benefícios exclusivos e sem anúncios
OK