Cifra Club

Walk Dont Run

Rufio

Tab de baixo: Principal
 R U F I O - W A L K  D O N 'T  R U N
 ------------------------------------


13. WALK DON'T RUN
   
   Tuning: DADG

  Intro/Verse
  "I see the sand fall through my hand......" 

G|----------------------------------------------------|
D|----------------------------------------------------| (x3)
A|----------------------------------------------------| 
D|--444555\12----444555\12----777999\14----777999\14--|

  Pre-Chorus and Chorus
  "It’s time to let it go...." 

G|-----------------------------------------------|
D|-----------------------------------------------| 
A|---------------454-----5~--0~--2~-----2\12xx---| 
D|--6666666666-55---5555-------------------------|

G|-------------------------------------------------|
D|-------------------------------------------------| 
A|--------------------------55~--00~--22~--2\12xx--| 
D|--5555555555-6666-5555\12------------------------|

G|---------------------------|
D|---------------------------| 
A|---------------------------| 
D|--5555555555-6666-5555\12--|

  Post-Chorus

G|-----------------------------------------------------------|
D|-----------------------------------------------------------|
A|--2-----------0-1-2-----------0-1-2-----------0-1-2--------|
D|----0-4-0-2-4-------0-4-0-2-4-------0-4-0-2-4-------0-4-0--|

  Verse
  "Surround ourselves with plastic bonds...."

G|----------------------------------------------------|
D|----------------------------------------------------| 
A|----------------------------------------------------| 
D|--444555\12----444555\12----777999\14----777999\14--|

G|----------------------------------------------------|
D|--444555\12----444555\12----777999\14----777999\14--| 
A|----------------------------------------------------| 
D|----------------------------------------------------|

G|----------------------------------------------------|
D|----------------------------------------------------| 
A|--999----------999----------222----------222--------| 
D|-----555\12-------555\12-------999\14-------999\14--|

  Pre-Chorus and Chorus
  "It’s time to let it go...." 

G|------------------------------------------------|
D|-----------7------------------------------------| 
A|---------89--------------5~--0~--2~-----2\12xx--| 
D|--6666666----555555555--------------------------|

G|-------------------------------------------------|
D|-------------------------------------------------| 
A|--------------------------55~--00~--22~--2\12xx--| 
D|--5555555555-6666-5555\12------------------------|

G|---------------------------|
D|---------797---------------| 
A|---------------------------| 
D|--5555555----6666-5555\12--|

G|-----------|
D|-----------|
A|--2--------|
D|----0-4-0--|

  Bridge

G|------------------------------------------|
D|------------------------------------------|
A|--------------5h7p5----------------5h7p5--|
D|--44455555555-------55-44455555555--------|

G|---------------------------------------------|
D|-----------------7h9p7----------------7h9p7--|
A|---------------------------------------------|
D|--55-77799999999-------99-77799999999--------|

G|---------------------------------------------|
D|-----------------5h7p5----------------5h7p5--|
A|---------------------------------------------|
D|--99-77755555555-------55-44455555555--------|

G|---------------------------------------------------|
D|-----------------11h12p11----------------11h12p11--|
A|---------------------------------------------------|
D|--55-77799999999----------99-77799999999-----------|
 
  Post-bridge
  "Don’t let life pass you by tonight...."
 
G|----------------------------------------------------------------|
D|----------------------------------------------------------------|
A|----------------------------------------------------------------|
D|--444-2x-2x-2~--444-2x-2x-2~--444-0x-0x-0~\12--444-0x-0x-0~\12--|

G|------------------------------------------------------------------|
D|------------------------------------------01----------------------|
A|----------------------------------------02------------------------|
D|--444-2x-2x-2~--444-2x-2x-2~--444-0x-0x-------444-0x-0x-0~\12xxx--|

  Pre-Chorus and Chorus
  "Now I know it’s time to let it go ...." 

G|-------------------------------------------------|
D|------54-----------------------------------------| 
A|----57--------------------5555-0000-222222\12xx--| 
D|--55----5555-6666-5555\12------------------------|

G|-------------------------------------------------|
D|-------------------------------------------------| 
A|--------------------------5555-0000-222222\12xx--| 
D|--5555555555-6666-5555\12------------------------|

G|--------------------------|
D|--------75----------------| 
A|-------5------------------| 
D|--55555--55-6666-5555\12--|

  Outro

G|-----------------------------------------------------------|
D|-----------------------------------------------------------|
A|--2-----------0-1-2-----------0-1-2-----------0-1-2--------|
D|----0-4-0-2-4-------0-4-0-2-4-------0-4-0-2-4-------0-4-0--|

  End

G|----------|
D|----------|
A|--0-1-2~--|
D|----------|






Legend Tab

| /  slide Up
| \  slide Down
| h  Hammer-On
| p  Pull-Off
| ~  vibrato
| x  Mute Note

If you have any questions,comments.....*
*
Composição de Jon Berry / Rufio
339 exibições

0 comentários

Ver todos os comentários

Conseguiu tocar?

0 Tocaram 0 Ainda não

Grave um vídeo tocando Walk Dont Run e nos envie!

00:00 / 00:00
Outros vídeos desta música
Repetir Qualidade Automático
Outros vídeos desta música
00:00 / 00:00
Automático

Cifra Club Pro

Aproveite o Cifra Club com benefícios exclusivos e sem anúncios
Cifra Club Pro
Aproveite o Cifra Club com benefícios exclusivos e sem anúncios
OK