Cifra Club

Aprenda

The Kings

Run DMC

Tab de baixo: Principal
Já pensou em usar uma coleção de roupas do Cifra Club? Responda as perguntas abaixo e nos ajude nessa missão! →
#-----------------------------------------------------------------------------#


Album: WWF: Agression
Transcribed by: Eric Somdahl
Email: *

 This is a pretty simple lick but most of the really cool stuff is very simple.
 guitars are tuned down a half step to Gb Db Ab Eb.   The first lick is from
 old DX theme.  I feel pretty lame submitting a 2-lick post but since nobody
 else did it... 

-|--------------------------------|--------------------------------|----------
-|*-------------------------------|-------------------------------*|----------
-|*------7-5--------5-5---7-7-7-7-|------7-5----------------------*|----------
-|--0-0--------0--0---------------|--0-0-------0--0--7-7--8-8-8-8--|----------
                                                                              

-|--------------------------|-------------------------------------------------
-|--------------------------|-------------------------------------------------
-|-------7-5-7--------------|-------------------------------------------------
-|--0-0---------7--8--3--5--|-------------------------------------------------
Compositor não encontrado.
328 exibições

0 comentários

Ver todos os comentários
00:00 / 00:00
Outros vídeos desta música
Repetir Qualidade Automático
Outros vídeos desta música
00:00 / 00:00
Automático

Cifra Club Pro

Aproveite o Cifra Club com benefícios exclusivos e sem anúncios
Cifra Club Pro
Aproveite o Cifra Club com benefícios exclusivos e sem anúncios
OK