Cifra Club

Smooth Operator

Sade

Cifra: Principal (violão e guitarra)
Tom: F
Solo intro:
             
E|-------------------------------------|------------------------------------|
B|-------------------------------------|------------------------------------|
G|---------------5-7-7/9p7\5-7---------|---------------5-7-7-9-10-7-9-7-5-7-|
D|-----2-3-5-5/7-----------------------|-----2-3-5-5/7----------------------|
A|--/5---------------------------------|--/5--------------------------------|
E|-------------------------------------|------------------------------------|

             
E|-------------------------------------|------------------------------|
B|-------------------------------------|-------66--8-8^9---6--8-6-6~~-|
G|---------------5-7-7/9p7\5-7---------|--5/7-------------7-7-----7~~-|
D|-----2-3-5-5/7-----------------------|------------------------------|
A|--/5---------------------------------|------------------------------|
E|-------------------------------------|------------------------------|

B= bend
P= pull-off
H= hammer-on

Dm              Dm/Db
He's laughing with another girl
Am7/C           Am7/C
And playing with another heart.
Dm              Dm/Db
Placing high stakes, making hearts ache.
Am7/C           Am7/C
He's loved in seven languages.
Dm              Dm/Db
Diamond nights and ruby lights, high in the sky.
Am7/C           Am7/C
Heaven help him, when he falls.

Dm      Am7  Gm7 Am7    Dm    Am7  Gm7 Am7
Diamond life,           lover boy.
We move in space with minimum waste and maximum joy.
Dm      Am7  Gm7 Am7        Dm   Am7  Gm7 Am7
City lights             and business nights.
     Dm      Am7  Gm7 Am7               Dm   Am7  Gm7 Am7
When you require streetcar desire for higher heights.

Gm7             Am7                     Dm     Dm/Db  Am7/C   Am7/B
No place for    beginners or sensitive hearts
Gm7             Am7             Dm      Dm/Db  Am7/C   Am7/B
When sentiment is left to chance.
Gm7             Am7                     Dm
No place to be ending but somewhere to start.
Fill A

No need to ask.
        Dm      Am7     Gm7     Am7
He's a smooth operator,
   Dm   Am7  Gm7 Am7
smooth operator,
  Dm    Am7  Gm7 Am7
smooth operator,
  Dm    Am7  Gm7 Am7
smooth operator.
Dm      Am7  Gm7 Am7             Dm   Am7  Gm7 Am7
Coast to coast, LA to Chicago, western male.
Dm      Am7             Gm7       Am7        Dm   Am7  Gm7 Am7
Across the north and south, to Key Largo, love for sale.

Face to face, each classic case.

We shadow box and double cross,

Yet need the chase.
""Some where here is the guitar, sax solo" "Dorfun make it your own 
solo"

Gm7                     Am7    Dm
A license to love, insurance to hold.
Gm7                             Am7       Dm
Melts all your memories and change into gold.
Gm7                     Am7               Dm
His eyes are like angels but his heart is cold.
Fill A
No need to ask.
        Dm      Am7  Gm7 Am7
He's a smooth operator,
  Dm    Am7  Gm7 Am7
smooth operator,
  Dm    Am7  Gm7 Am7
smooth operator,
  Dm    Am7  Gm7 Am7
smooth operator.
Dm      Am7  Gm7 Am7             Dm   Am7  Gm7 Am7
Coast to coast, LA to Chicago, western male.
Dm      Am7  Gm7 Am7             Dm   Am7  Gm7 Am7
Across the north and south, to Key Largo, love for sale.
  Dm    Am7  Gm7 Am7             Dm   Am7  Gm7 Am7
Smooth operator,
  Dm    Am7  Gm7 Am7             Dm   Am7  Gm7 Am7
smooth operator,
  Dm    Am7  Gm7 Am7             Dm   Am7  Gm7 Am7
smooth operator,
  Dm    Am7  Gm7 Am7             Dm   Am7  Gm7 Am7
smooth operator,
  Dm    Am7  Gm7 Am7             Dm   Am7  Gm7 Am7
smooth operator...
exibições 54.851
Acordes para:
    Composição: Antonio Hardy / Clyde Otis / Murray Stein / Sade Adu Colaboração e revisão:
    • Hugo Souza
    • Giordano Rech

    0 comentários

    mostrar mais comentários

    Conseguiu tocar?

    1 tocaram 0 ainda não

    Grave um vídeo tocando Smooth Operator e mande pra gente!

    00:00 / 00:00
    outros vídeos desta música
    repetir qualidade Automático
    Outros vídeos desta música
    00:00 / 00:00
    Automático
    OK