Cifra Club

Cara Metade

Salvação

Cifra: Principal (violão e guitarra)
tom: A
Intro: E C#m G#m A


  E         C#m               G#m                A                 E
e|-----------------------------------7-5-----------------------------|
B|-7-5-9-7-5----7-5-9-7-5-7-5-7~9---9---9-7-7-5----7-5-9-7-5-7-5---5-|
G|----------6---------------------------------------------------6-4--|
D|-------------------------------------------------------------------|
A|-------------------------------------------------------------------|
E|-------------------------------------------------------------------|

  
            C#m               G#m             A
e|---------------7-9-7-5----------------------------------|
B|-7-5-9-7-5----9-------9-7-5-7~9-9-9-9-7-5-5----------7-5|
G|----------6---------------------------------------------|
D|--------------------------------------------------------|
A|--------------------------------------------------------|
E|-----------------------------------------------|


E             C#m
Era tão fácil viver assim só 
G#m            A    
Mas de repente tudo mas tudo mudou 
E             C#m 
Veio do nada, mas me deu tudo
G#m           
Tudo que eu precisava 
A    
Pra não ficar mais mudo 
E             C#m
Agora dependo de muitos fatos
G#m    
Só que já não aguento
A    
Ficar só sem retratos 
E                 C#m
Sei que acredito, tenho que acreditar
G#m    
Mas não duvido 
A    
Que você possa me deixar 

Refrão:
E
Por favor não vá embora
C#m    
Que eu ja joguei tudo fora 
G#m    
Por favor não vá embora 
A    
Que eu quero você agora ( 2 x ) 


E    
Sei que eu cheguei de intruso 
C#m    
Mas não era o que eu queria 
G#m    
Só sei que fiquei confuso 
A    
Por te querer todo dia
E    
Também sei que ama
C#m    
Quem não está do seu lado
G#m    
Você é minha metade 
A    
Não posso ficar parado 


Refrão: ( 2 x )


E
Aqui fora eu tô errado 
C#m    
Quanto, tanta tentação
G#m    
que você saiba
A    
Só quero seu coração
E    
Isso tudo já me basta 
C#m    
Sei que tenho que lutar
G#m    
Tabém sei que vale a pena
A    
Pois minha vida é te amar

Refrão: ( 2 x )
Composição de Rodrigo Cx
Colaboração e revisão:
  • Anderson Coppi
11.660 exibições
    • ½ Tom
    • A
    • Bb
    • B
    • C
    • Db
    • D
    • Eb
    • E
    • F
    • F#
    • G
    • Ab
  • Adicionar à lista

    0 comentários

    Ver todos os comentários

    Conseguiu tocar?

    2 Tocaram 0 Ainda não

    Grave um vídeo tocando Cara Metade e nos envie!

    00:00 / 00:00
    Outros vídeos desta música
    Repetir Qualidade Automático
    Outros vídeos desta música
    00:00 / 00:00
    Automático

    Cifra Club Pro

    Aproveite o Cifra Club com benefícios exclusivos e sem anúncios
    Cifra Club Pro
    Aproveite o Cifra Club com benefícios exclusivos e sem anúncios
    OK