Cifra Club

Entre Nós

Sandra de Sá

Cifra: Versão 2 (violão e guitarra)
tom: G
E|--------------|--------------|--15--15-15---------|-14-15-14--15-14------|
B|--------------|--------------|-----------------15-|----------------------|
G|--------------|--------------|--------------------|----------------------|
D|--------------|--------------|--------------------|----------------------|
A|--------------|--------------|--------------------|----------------------|
E|--------------|--------------|--------------------|----------------------|

E|-----13-13-13--12-----13-12-|--------------|-----11-11-11--10-----11-|
B|------------------15--------|--------------|------------------13-----|
G|----------------------------|--------------|-------------------------|
D|----------------------------|--------------|-------------------------|
A|----------------------------|--------------|-------------------------|
E|----------------------------|--------------|-------------------------|

E|-10------10----12-10--------|------15-15-15--14-12--14-|--------------|
B|------12----12-------13--12-|--------------------------|-15-----------|
G|----------------------------|--------------------------|--------------|
D|----------------------------|--------------------------|--------------|
A|----------------------------|--------------------------|--------------|
E|----------------------------|--------------------------|--------------|

E|-----15-15-15---------14-|--15-14--15-14------|--13--13-13--12-----13-|
B|-------------------15----|--------------------|----------------15-----|
G|-------------------------|--------------------|-----------------------|
D|-------------------------|--------------------|-----------------------|
A|-------------------------|--------------------|-----------------------|
E|-------------------------|--------------------|-----------------------|

E|-12-----------|-----11-11-11--10-----11-10-|---------10-12--10-----------|
B|--------------|------------------13--------|------12-----------13--12-10-|
G|--------------|----------------------------|-----------------------------|
D|--------------|----------------------------|-----------------------------|
A|--------------|----------------------------|-----------------------------|
E|--------------|----------------------------|-----------------------------|

E|------15-15-15--14-12--14-|-12-10------10-12--14-15-|------15--14-12-----|
B|--------------------------|-------------------------|-----------------15-|
G|--------------------------|-------------------------|--------------------|
D|--------------------------|-------------------------|--------------------|
A|--------------------------|-------------------------|--------------------|
E|--------------------------|-------------------------|--------------------|

E|-15---15--14--12-10-14-|--14-14--15-14--12-----12-|-12-----12--12-14--|
B|-----------------------|--------------------15----|----15-------------|
G|-----------------------|--------------------------|-------------------|
D|-----------------------|--------------------------|-------------------|
A|-----------------------|--------------------------|-------------------|
E|-----------------------|--------------------------|-------------------|

E|----------15--14-12-15-|------15---------12-|-14-14-14--15-14--12-10--12-12-|
B|-----------------------|--------------15----|-------------------------------|
G|-----------------------|--------------------|-------------------------------|
D|-----------------------|--------------------|-------------------------------|
A|-----------------------|--------------------|-------------------------------|
E|-----------------------|--------------------|-------------------------------|

E|--10----------15-15-|------15--14--12----15-|------15--14--12-10-14-|
B|--------------------|-----------------15----|-----------------------|
G|--------------------|-----------------------|-----------------------|
D|--------------------|-----------------------|-----------------------|
A|--------------------|-----------------------|-----------------------|
E|--------------------|-----------------------|-----------------------|

E|--14-14--15-14--12-------12-|-13-13-13--15-12-12-14--|----------15--14-12-15-|
B|-------------------15-15----|------------------------|-----------------------|
G|----------------------------|------------------------|-----------------------|
D|----------------------------|------------------------|-----------------------|
A|----------------------------|------------------------|-----------------------|
E|----------------------------|------------------------|-----------------------|

E|------15---------7-|-8-8-8--8-10--8-7--7-|--------------|--------------|
B|-------------------|---------------------|-8------------|--------------|
G|--------------14---|---------------------|--------------|--------------|
D|-------------------|---------------------|--------------|--------------|
A|-------------------|---------------------|--------------|--------------|
E|-------------------|---------------------|--------------|--------------|

E|--------------|--------------|--------------|--------------|--------------|
B|--------------|--------------|--------------|--------------|--------------|
G|--------------|--------------|--------------|--------------|--------------|
D|--------------|--------------|--------------|--------------|--------------|
A|--------------|--------------|--------------|--------------|--------------|
E|--------------|--------------|--------------|--------------|--------------|

E|--------------|--------------|--------------|-----15-15-15---------14-|
B|--------------|--------------|--------------|-------------------15----|
G|--------------|--------------|--------------|-------------------------|
D|--------------|--------------|--------------|-------------------------|
A|--------------|--------------|--------------|-------------------------|
E|--------------|--------------|--------------|-------------------------|

E|--15-14--15-14------|--13--13-13--12-----13-|-12-----------|
B|--------------------|----------------15-----|--------------|
G|--------------------|-----------------------|--------------|
D|--------------------|-----------------------|--------------|
A|--------------------|-----------------------|--------------|
E|--------------------|-----------------------|--------------|

E|-----11-11-11--10-----11-10-|---------10-12--10-----------|
B|------------------13--------|------12-----------13--12-10-|
G|----------------------------|-----------------------------|
D|----------------------------|-----------------------------|
A|----------------------------|-----------------------------|
E|----------------------------|-----------------------------|

E|------15-15-15--14-12--14-|-12-10------10-12--14-15-|------15--14-12-----|
B|--------------------------|-------------------------|-----------------15-|
G|--------------------------|-------------------------|--------------------|
D|--------------------------|-------------------------|--------------------|
A|--------------------------|-------------------------|--------------------|
E|--------------------------|-------------------------|--------------------|

E|-15---15--14--12-10-14-|--14-14--15-14--12-----12-|-12-----12--12-14--|
B|-----------------------|--------------------15----|----15-------------|
G|-----------------------|--------------------------|-------------------|
D|-----------------------|--------------------------|-------------------|
A|-----------------------|--------------------------|-------------------|
E|-----------------------|--------------------------|-------------------|

E|----------15--14-12-15-|------15---------12-|-14-14-14--15-14--12-10--12-12-|
B|-----------------------|--------------15----|-------------------------------|
G|-----------------------|--------------------|-------------------------------|
D|-----------------------|--------------------|-------------------------------|
A|-----------------------|--------------------|-------------------------------|
E|-----------------------|--------------------|-------------------------------|

E|--10----------15-15-|------15--14--12----15-|------15--14--12-10-14-|
B|--------------------|-----------------15----|-----------------------|
G|--------------------|-----------------------|-----------------------|
D|--------------------|-----------------------|-----------------------|
A|--------------------|-----------------------|-----------------------|
E|--------------------|-----------------------|-----------------------|

E|--14-14--15-14--12-------12-|-13-13-13--15-12-12-14--|----------15--14-12-15-|
B|-------------------15-15----|------------------------|-----------------------|
G|----------------------------|------------------------|-----------------------|
D|----------------------------|------------------------|-----------------------|
A|----------------------------|------------------------|-----------------------|
E|----------------------------|------------------------|-----------------------|

E|------15---------7-|-8-8-8--8-10--8-7--7-|----------10-12--14-15-|
B|-------------------|---------------------|-8---------------------|
G|--------------14---|---------------------|-----------------------|
D|-------------------|---------------------|-----------------------|
A|-------------------|---------------------|-----------------------|
E|-------------------|---------------------|-----------------------|

E|------15--14-12-----|-15---15--14--12-10-14-|--14-14--15-14--12-----12-|
B|-----------------15-|-----------------------|--------------------15----|
G|--------------------|-----------------------|--------------------------|
D|--------------------|-----------------------|--------------------------|
A|--------------------|-----------------------|--------------------------|
E|--------------------|-----------------------|--------------------------|

E|-12-----12--12-14--|----------15--14-12-15-|------15---------12-|
B|----15-------------|-----------------------|--------------15----|
G|-------------------|-----------------------|--------------------|
D|-------------------|-----------------------|--------------------|
A|-------------------|-----------------------|--------------------|
E|-------------------|-----------------------|--------------------|

E|-14-14-14--15-14--12-10--12-12-|--10----------15-15-|------15--14--12----15-|
B|-------------------------------|--------------------|-----------------15----|
G|-------------------------------|--------------------|-----------------------|
D|-------------------------------|--------------------|-----------------------|
A|-------------------------------|--------------------|-----------------------|
E|-------------------------------|--------------------|-----------------------|

E|------15--14--12-10-14-|--14-14--15-14--12-------12-|-13-13-13--15-12-12-14--|
B|-----------------------|-------------------15-15----|------------------------|
G|-----------------------|----------------------------|------------------------|
D|-----------------------|----------------------------|------------------------|
A|-----------------------|----------------------------|------------------------|
E|-----------------------|----------------------------|------------------------|

E|----------15--14-12-15-|------15---------7-|-8-8-8--8-10--8-7--7-|
B|-----------------------|-------------------|---------------------|
G|-----------------------|--------------14---|---------------------|
D|-----------------------|-------------------|---------------------|
A|-----------------------|-------------------|---------------------|
E|-----------------------|-------------------|---------------------|

E|--------------|--------------|--------------|
B|--------------|--------------|--------------|
G|-12-----------|--------------|--------------|
D|--------------|--------------|--------------|
A|--------------|--------------|--------------|
E|--------------|--------------|--------------|

Composição de Michael Sullivan / Paulo Massadas
Colaboração e revisão:
  • Helon Oliveira
45 exibições
    • ½ Tom
    • A
    • Bb
    • B
    • C
    • Db
    • D
    • Eb
    • E
    • F
    • F#
    • G
    • Ab
  • Adicionar à lista

    0 comentários

    Ver todos os comentários

    Conseguiu tocar?

    0 Tocaram 0 Ainda não

    Grave um vídeo tocando Entre Nós e nos envie!

    00:00 / 00:00
    Outros vídeos desta música
    Repetir Qualidade Automático
    Outros vídeos desta música
    00:00 / 00:00
    Automático

    Cifra Club Pro

    Aproveite o Cifra Club com benefícios exclusivos e sem anúncios
    Cifra Club Pro
    Aproveite o Cifra Club com benefícios exclusivos e sem anúncios
    OK