Cifra Club

Aprenda

Tristeza

Sandra de Sá

Cifra: Principal (violão e guitarra)
tom: D
E|------|------|-9--9---9--|-9--9---9--|-14-9---9-----|-9-----9---9-----|
B|------|------|-9--9---9--|-9--9---9--|-14-9---9-----|-11----9---9-----|
G|------|------|-10-10--10-|-10-10--10-|-11-11--11-11-|-13-11-11--11-11-|
D|------|------|-----------|-----------|--------------|-----------------|
A|------|------|-----------|-----------|--------------|-----------------|
E|------|------|-----------|-----------|--------------|-----------------|

E|-9-----9---9----|-9------9---9----|-9-----9---9-------|-9------9---9--|
B|-10----10--10---|-10-----10--10---|-9-----9---9--9----|-9----9-11--9--|
G|-11-11-11--9--9-|-9--9-9-9---9--9-|-10-10-10--10---10-|---10---10--10-|
D|----------------|-----------------|-------------------|---------------|
A|----------------|-----------------|-------------------|---------------|
E|----------------|-----------------|-------------------|---------------|

E|-9-----9---9-------|-9--------9---9-----|-9--------9---9-----|
B|-12----9---9--9----|-12----9--9---9--9--|-11-------9---9-----|
G|-13-10-10--10---10-|-13-10-10-10--10-10-|-13-11-11-11--11-11-|
D|-------------------|--------------------|--------------------|
A|-------------------|--------------------|--------------------|
E|-------------------|--------------------|--------------------|

E|-9--------9---9----|-9--0-0-9---9----|-9----9-9---9--0--|
B|-11-------9---9----|-10-----10--10---|-10-----10--10----|
G|-13-11-11-11--11-9-|-11-----9---9--9-|-11-9-9-9---9--11-|
D|-------------------|-----------------|------------------|
A|-------------------|-----------------|------------------|
E|-------------------|-----------------|------------------|

E|-9--------9----9-------|-9--------9---9--|-9--9---9--|-9--9---9--|-9--9---9--|
B|-11----9--9--9-9--9-9--|-11----9--11--11-|-9--9---9--|-9--9---9--|-11-9---11-|
G|-13-10-10-10---10---10-|-13-10-10-10--10-|-10-10--10-|-10-10--10-|-11-11--11-|
D|-----------------------|-----------------|-----------|-----------|-----------|
A|-----------------------|-----------------|-----------|-----------|-----------|
E|-----------------------|-----------------|-----------|-----------|-----------|

E|-9--9---9--|-9--9---9--|-9--9---9--|-9--9---9--|-9--9---9--|-9--9---9--|
B|-11-11--9--|-10-10--10-|-10-10--10-|-9--9---9--|-9--9---9--|-9--9---11-|
G|-11-11--11-|-9--9---9--|-9--9---9--|-10-10--10-|-10-10--10-|-10-10--10-|
D|-----------|-----------|-----------|-----------|-----------|-----------|
A|-----------|-----------|-----------|-----------|-----------|-----------|
E|-----------|-----------|-----------|-----------|-----------|-----------|

E|-9--9---9--|-9--9---9--|-9--9---9--|-----------|-8--8---8--|-----------|
B|-11-11--9--|-11-11--11-|-11-11--11-|-11-11--11-|-9--9---9--|-11-11--11-|
G|-10-10--10-|-12-12--12-|-12-12--12-|-11-11--13-|-11-11--11-|-11-11--11-|
D|-----------|-11-11--11-|-11-11--11-|-13-13--13-|-13-13--13-|-11-11--11-|
A|-----------|-----------|-----------|-----------|-----------|-----------|
E|-----------|-----------|-----------|-----------|-----------|-----------|

E|-8--8---8--|-----------|-8--8---8--8--|--------------------|
B|-9--9---9--|-11-11--11-|-9--9---9--9--|-11-11-11-11--11----|
G|-11-11--11-|-11-13--13-|-11-11--11-11-|-13-13-11-13--13----|
D|-13-13--13-|-11-11--11-|-13-13--13-13-|-11-11-11-11--11-11-|
A|-----------|-----------|--------------|--------------------|
E|-----------|-----------|--------------|--------------------|

E|-8--8--8------------|-9--9---9--|-9--9---9--|-9-----9---9--|-9--9---9--|
B|-9--9--9--11--9--9--|-9--9---9--|-9--11--9--|-11----11--11-|-11-9------|
G|-11-11-11-11--11-11-|-10-10--10-|-10-10--10-|-11-11-11--11-|-11-----11-|
D|-13-13-13-13--13-13-|-----------|-----------|-13----13--13-|-13-13--13-|
A|--------------------|-----------|-----------|--------------|-----------|
E|--------------------|-----------|-----------|--------------|-----------|

E|-13-11--11-|-11-11--11-|-9--9---9--|-8-----------|--9-----9--9--|--9-----9-----|
B|-13-9---9--|-9--9---9--|-11-11--11-|-9--11-11-11-|--9-----9--9--|--9-----9--9--|
G|-10-10--10-|-10-10--10-|-11-11--11-|-11-11-8--11-|--10-10-10-10-|--10----11-10-|
D|-----------|-----------|-13-13--13-|-13-------11-|--11-11-11-11-|--11-11-11-11-|
A|-----------|-----------|-----------|-------------|--------------|--------------|
E|-----------|-----------|-----------|-------------|--------------|--------------|

E|--11----11-------11-|--11----11----|--13----13----13-|--13----13------13-|
B|--11----11-------11-|--11----11----|--13----13----13-|--13-9--13----9-13-|
G|--11-11-11----11-11-|--13----11-11-|--10-10-13-10-10-|--10-10-13-10---10-|
D|--13-13----13-13-13-|--13-13----13-|-----------------|-------------------|
A|--------------------|--------------|-----------------|-------------------|
E|--------------------|--------------|-----------------|-------------------|

E|--11-11-11----11----|----------9--|------|------|-9--9---9--|-9--9---9--|
B|--11-11-11----11-11-|----------9--|------|------|-9--9---9--|-9--9---9--|
G|--11-11-11----11-11-|-11-10-10-10-|------|------|-10-10--10-|-10-10--10-|
D|--13-13-13-13-13-13-|-------13-11-|------|------|-----------|-----------|
A|--------------------|-------------|------|------|-----------|-----------|
E|--------------------|-------------|------|------|-----------|-----------|

E|-9--9---9--|-9--9---9--|-9--9---9--|-9--9---9--|-9--9---9--|-9--9---9--|
B|-11-9---11-|-11-11--9--|-10-10--10-|-10-10--10-|-9--9---9--|-9--9---9--|
G|-11-11--11-|-11-11--11-|-9--9---9--|-9--9---9--|-10-10--10-|-10-10--10-|
D|-----------|-----------|-----------|-----------|-----------|-----------|
A|-----------|-----------|-----------|-----------|-----------|-----------|
E|-----------|-----------|-----------|-----------|-----------|-----------|

E|-9--9---9--|-9--9---9--|-9--9---9--|-9--9---9--|-----------|-8--8---8--|
B|-9--9---11-|-11-11--9--|-11-11--11-|-11-11--11-|-11-11--11-|-9--9---9--|
G|-10-10--10-|-10-10--10-|-12-12--12-|-12-12--12-|-11-11--13-|-11-11--11-|
D|-----------|-----------|-11-11--11-|-11-11--11-|-13-13--13-|-13-13--13-|
A|-----------|-----------|-----------|-----------|-----------|-----------|
E|-----------|-----------|-----------|-----------|-----------|-----------|

E|-----------|-8--8---8--|-----------|-8--8---8--8--|--------------------|
B|-11-11--11-|-9--9---9--|-11-11--11-|-9--9---9--9--|-11-11-11-11--11----|
G|-11-11--11-|-11-11--11-|-11-13--13-|-11-11--11-11-|-13-13-11-13--13----|
D|-11-11--11-|-13-13--13-|-11-11--11-|-13-13--13-13-|-11-11-11-11--11-11-|
A|-----------|-----------|-----------|--------------|--------------------|
E|-----------|-----------|-----------|--------------|--------------------|

E|-8--8--8------------|-9--9---9--|-9--9---9--|-9-----9---9--|-9--9---9--|
B|-9--9--9--11--9--9--|-9--9---9--|-9--11--9--|-11----11--11-|-11-9------|
G|-11-11-11-11--11-11-|-10-10--10-|-10-10--10-|-11-11-11--11-|-11-----11-|
D|-13-13-13-13--13-13-|-----------|-----------|-13----13--13-|-13-13--13-|
A|--------------------|-----------|-----------|--------------|-----------|
E|--------------------|-----------|-----------|--------------|-----------|

E|-13-11--11-|-11-11--11-|-9--9---9--|-8-----------|--9-----9--9--|--9-----9-----|
B|-13-9---9--|-9--9---9--|-11-11--11-|-9--11-11-11-|--9-----9--9--|--9-----9--9--|
G|-10-10--10-|-10-10--10-|-11-11--11-|-11-11-8--11-|--10-10-10-10-|--10----11-10-|
D|-----------|-----------|-13-13--13-|-13-------11-|--11-11-11-11-|--11-11-11-11-|
A|-----------|-----------|-----------|-------------|--------------|--------------|
E|-----------|-----------|-----------|-------------|--------------|--------------|

E|--11----11-------11-|--11----11----|--13----13----13-|--13----13------13-|
B|--11----11-------11-|--11----11----|--13----13----13-|--13-9--13----9-13-|
G|--11-11-11----11-11-|--13----11-11-|--10-10-13-10-10-|--10-10-13-10---10-|
D|--13-13----13-13-13-|--13-13----13-|-----------------|-------------------|
A|--------------------|--------------|-----------------|-------------------|
E|--------------------|--------------|-----------------|-------------------|

E|--11-11-11----11----|----------9--|------|------|-9--9---9--|-9--9---9--|
B|--11-11-11----11-11-|----------9--|------|------|-9--9---9--|-9--9---9--|
G|--11-11-11----11-11-|-11-10-10-10-|------|------|-10-10--10-|-10-10--10-|
D|--13-13-13-13-13-13-|-------13-11-|------|------|-----------|-----------|
A|--------------------|-------------|------|------|-----------|-----------|
E|--------------------|-------------|------|------|-----------|-----------|

E|-9--9---9--|-9--9---9--|-9--9---9--|-9--9---9--|-9--9---9--|-9--9---9--|
B|-11-9---11-|-11-11--9--|-10-10--10-|-10-10--10-|-9--9---9--|-9--9---9--|
G|-11-11--11-|-11-11--11-|-9--9---9--|-9--9---9--|-10-10--10-|-10-10--10-|
D|-----------|-----------|-----------|-----------|-----------|-----------|
A|-----------|-----------|-----------|-----------|-----------|-----------|
E|-----------|-----------|-----------|-----------|-----------|-----------|

E|-9--9---9--|-9--9---9--|-9--9---9--|-9--9---9--|-----------|-8--8---8--|
B|-9--9---11-|-11-11--9--|-11-11--11-|-11-11--11-|-11-11--11-|-9--9---9--|
G|-10-10--10-|-10-10--10-|-12-12--12-|-12-12--12-|-11-11--13-|-11-11--11-|
D|-----------|-----------|-11-11--11-|-11-11--11-|-13-13--13-|-13-13--13-|
A|-----------|-----------|-----------|-----------|-----------|-----------|
E|-----------|-----------|-----------|-----------|-----------|-----------|

E|-----------|-8--8---8--|-----------|-8--8---8--8--|--------------------|
B|-11-11--11-|-9--9---9--|-11-11--11-|-9--9---9--9--|-11-11-11-11--11----|
G|-11-11--11-|-11-11--11-|-11-13--13-|-11-11--11-11-|-13-13-11-13--13----|
D|-11-11--11-|-13-13--13-|-11-11--11-|-13-13--13-13-|-11-11-11-11--11-11-|
A|-----------|-----------|-----------|--------------|--------------------|
E|-----------|-----------|-----------|--------------|--------------------|

E|-8--8--8------------|-9--9---9--|-9--9---9--|-9-----9---9--|-9--9---9--|
B|-9--9--9--11--9--9--|-9--9---9--|-9--11--9--|-11----11--11-|-11-9------|
G|-11-11-11-11--11-11-|-10-10--10-|-10-10--10-|-11-11-11--11-|-11-----11-|
D|-13-13-13-13--13-13-|-----------|-----------|-13----13--13-|-13-13--13-|
A|--------------------|-----------|-----------|--------------|-----------|
E|--------------------|-----------|-----------|--------------|-----------|

E|-13-11--11-|-11-11--11-|-9--9---9--|-8-----------|--9-----9--9--|--9-----9-----|
B|-13-9---9--|-9--9---9--|-11-11--11-|-9--11-11-11-|--9-----9--9--|--9-----9--9--|
G|-10-10--10-|-10-10--10-|-11-11--11-|-11-11-8--11-|--10-10-10-10-|--10----11-10-|
D|-----------|-----------|-13-13--13-|-13-------11-|--11-11-11-11-|--11-11-11-11-|
A|-----------|-----------|-----------|-------------|--------------|--------------|
E|-----------|-----------|-----------|-------------|--------------|--------------|

E|--11----11-------11-|--11----11----|--13----13----13-|--13----13------13-|
B|--11----11-------11-|--11----11----|--13----13----13-|--13-9--13----9-13-|
G|--11-11-11----11-11-|--13----11-11-|--10-10-13-10-10-|--10-10-13-10---10-|
D|--13-13----13-13-13-|--13-13----13-|-----------------|-------------------|
A|--------------------|--------------|-----------------|-------------------|
E|--------------------|--------------|-----------------|-------------------|

E|-----------|-8------|-11-11--11-|-11-11--11-|-11---11--11-|-11-11--11-|
B|-11-11--11-|-9--9---|-11-11--11-|-11-13--11-|-13-9-9---9--|-9--11--9--|
G|-11-11--11-|-11-10--|-12-12--12-|-12-12--12-|-10---10--10-|-10-10--10-|
D|-13-13--13-|-13-12--|-----------|-----------|-------------|-----------|
A|-----------|----11--|-----------|-----------|-------------|-----------|
E|-----------|--------|-----------|-----------|-------------|-----------|

E|-15-13--13-|-13-13--13-|-11-11--11-|-10-8-8--8-|--11----11-11-|--11----11----|
B|-15-11--11-|-11-11--11-|-13-13--13-|-9--9----9-|--11----11-11-|--11----11-11-|
G|-12-12--12-|-12-12--12-|-10-10--10-|-10---10-8-|--12-12-12-12-|--12----13-12-|
D|-----------|-----------|-----------|-----------|--13-13-13-13-|--13-13-13-13-|
A|-----------|-----------|-----------|-----------|--------------|--------------|
E|-----------|-----------|-----------|-----------|--------------|--------------|

E|--13----13-------13-|--13----13-4-|--15----15----15-|--15----15-------15-|
B|--13-9--13----9--13-|--11----13-6-|--15----11----15-|--15-11-11----11-15-|
G|--10-10-13-10-10-10-|--10-10-13---|--12-12----12-12-|--12-12----12----12-|
D|--------------------|-------------|-----------------|--------------------|
A|--------------------|-------------|-----------------|--------------------|
E|--------------------|-------------|-----------------|--------------------|

E|--13-13-13----13-8--|--------11-|-11-11--11-|-11-11--11-|-11---11--11-|
B|--13-13-13----13-9--|-9-8-8--11-|-11-11--11-|-11-13--11-|-13-9-9---9--|
G|--10-10-10-10-10-10-|-----10-12-|-12-12--12-|-12-12--12-|-10---10--10-|
D|--------------------|--------13-|-----------|-----------|-------------|
A|--------------------|-----------|-----------|-----------|-------------|
E|--------------------|-----------|-----------|-----------|-------------|

E|-11-11--11-|-15-13--13-|-13-13--13-|-11-11--11-|-10-8-8--8-|--11----11-11-|
B|-9--11--9--|-15-11--11-|-11-11--11-|-13-13--13-|-9--9----9-|--11----11-11-|
G|-10-10--10-|-12-12--12-|-12-12--12-|-10-10--10-|-10---10-8-|--12-12-12-12-|
D|-----------|-----------|-----------|-----------|-----------|--13-13-13-13-|
A|-----------|-----------|-----------|-----------|-----------|--------------|
E|-----------|-----------|-----------|-----------|-----------|--------------|

E|--11----11----|--13----13-------13-|--13----13-4-|--15----15----15-|
B|--11----11-11-|--13-9--13----9--13-|--11----13-6-|--15----11----15-|
G|--12----13-12-|--10-10-13-10-10-10-|--10-10-13---|--12-12----12-12-|
D|--13-13-13-13-|--------------------|-------------|-----------------|
A|--------------|--------------------|-------------|-----------------|
E|--------------|--------------------|-------------|-----------------|

E|--15----15-------15-|--13-13-13----13-8--|--------11-|------|------|
B|--15-11-11----11-15-|--13-13-13----13-9--|-9-8-8--11-|------|------|
G|--12-12----12----12-|--10-10-10-10-10-10-|-----10-12-|------|------|
D|--------------------|--------------------|--------13-|------|------|
A|--------------------|--------------------|-----------|------|------|
E|--------------------|--------------------|-----------|------|------|

Composição de Carlos Colla / Marcos Valle
Colaboração e revisão:
  • Helon Oliveira
6.127 exibições
    • ½ Tom
    • A
    • Bb
    • B
    • C
    • Db
    • D
    • Eb
    • E
    • F
    • F#
    • G
    • Ab
  • Adicionar à lista

    0 comentários

    Ver todos os comentários

    Conseguiu tocar?

    0 Tocaram 0 Ainda não

    Grave um vídeo tocando Tristeza e nos envie!

    00:00 / 00:00
    Outros vídeos desta música
    Repetir Qualidade Automático
    Outros vídeos desta música
    00:00 / 00:00
    Automático

    Cifra Club Pro

    Aproveite o Cifra Club com benefícios exclusivos e sem anúncios
    Cifra Club Pro
    Aproveite o Cifra Club com benefícios exclusivos e sem anúncios
    OK