Cifra Club

Aprenda

No Fundo do Coração

Sandy & Junior

Cifra: Principal (violão e guitarra)
Tom: E
[Intro] E  B  A  B

[Primeira Parte]

E                        B
  Eu quero ser um lindo sonho pro teu coração
A                     B
  Quero fazer da sua vida poesia e canção
E                          B                     A
  Eu quero estar no seu caminho como um raio de sol
                            B                         C#m
E pros teus passos mais distantes te guiar como um farol

[Pré-Refrão]

Eu quero
   B
É tudo que eu quero
    A                B
Do fundo do meu coração

[Refrão]

              E                 B
Vou te encontrar na luz das estrelas
         A                B
Te refletir nas águas do mar
         E             B
Quero ficar assim pra sempre
            A                B
Porque pra mim a vida é te amar

[Segunda Parte]

E                      B
  Se por acaso alguma nuvem encobrir teu céu
A                       B                   
  Eu vou buscar no arco-íris aquarela e pincel
E                        B
  Pintar sorrisos nas palavras que você disser
A                     B
  Te dar magia e alegria

[Pré-Refrão]

                  C#m             B
É meu jeito de dizer "te amo",que eu te quero
    A                B
Do fundo do meu coração

[Refrão]

              E                 B
Vou te encontrar na luz das estrelas
        A                 B
Te refletir nas águas do mar
         E             B
Quero ficar assim pra sempre
            A                B
Porque pra mim a vida é te amar

[Ponte]

A            B
  Você é um lindo sonho
A                     B                        A
  Que eu vivo a te olhar,que acorda o meu coração
            B             
Um sonho assim jamais tem fim

[Solo] E  B  A  B

E|-------------11-12-14-14/16-16-16-16------|
B|-------12-14------------------------------|
G|-11-13------------------------------------|
E|------------------------------------------|
A|------------------------------------------|
E|------------------------------------------|

E|-11-11h12p11------------------------------|
B|-------------14-12--9-10-10-9-------------|
G|------------------------------9-----------|
D|--------------------------------11--------|
A|------------------------------------------|
E|------------------------------------------|

E|---------------------------------11-12----|
B|-9-9h10p9----------9-10-12-12/14----------|
G|----------11--9-11------------------------|
D|------------------------------------------|
A|------------------------------------------|
E|------------------------------------------|

E|-11-12-14-14/16---------------------------|
B|------------------------------------------|
G|------------------------------------------|
D|------------------------------------------|
A|------------------------------------------|
E|------------------------------------------|

[Primeira Parte]

E                        B
  Eu quero ser um lindo sonho pro teu coração
A                     B
  Quero fazer da sua vida poesia e canção
E                          B                     A  B
  Eu quero estar no seu caminho como um raio de sol

[Refrão]

              E                B
Vou te encontrar na luz das estrelas
         A                B
Te refletir nas águas do mar
         C#m           B
Quero ficar assim pra sempre
            A                B
Porque pra mim a vida é te amar

[Final] E  B  A  B  E
Composição de Daniel Jones / Darren Hayes / Paulo Sérgio Valle
Colaboração e revisão:
  • Thiago Almeida
  • isabella rodrigues
158.519 exibições
  • Simplificar cifra
    • ½ Tom
    • A
    • Bb
    • B
    • C
    • Db
    • D
    • Eb
    • E
    • F
    • F#
    • G
    • Ab
  • Adicionar à lista

    0 comentários

    Mostrar mais comentários

    Conseguiu tocar?

    18 Tocaram 0 Ainda não

    Grave um vídeo tocando No Fundo do Coração e mande pra gente!

    00:00 / 00:00
    outros vídeos desta música
    repetir qualidade Automático
    Outros vídeos desta música
    00:00 / 00:00
    Automático
    OK