Cifra Club

Agua que va caer

Santana

Cifra: Principal (violão e guitarra)
tom: Am
Am
Malo tiempo yo no quiero
que me traigan .... desa fino
           E
en mi soledad
G             Am
ángel divino yo no quiero
G                  Am
en mi camino la fatalidad, sí!

Am

Am
Cuando veo al cielo
que se está nublando
cuando veo al cielo
que se está nublando.

Agua que va caer te juro que va mojar

Coro
             Am                   G
Agua que va caer te juro que va a caer
             Am             G
agua que va caer...
             Am             G
agua que va caer...
             Am                   G
agua que va caer... caballero la rumba buena..
             Am              G
agua que va caer... ven y ven y ven y ven
             Am                       G
agua que va caer... que va a caer que va a mojar
             Am                       G
agua que va caer... ten cuidado con tus zapatos nuevos
             Am                G
agua que va caer...       el piso está mojao'
             Am
agua que va caer

(Solo teclados)

Solo
e|-<15/(17)>..-15-12-15-12-----------------------------12--------
B|-------------------------15--13-15-15-15-15-15-13-15----13-----|
G|-----------------------------------------------------------14--|
D|---------------------------------------------------------------|
A|---------------------------------------------------------------|
E|---------------------------------------------------------------|

E|------------------------------------------|
B|-------------13--------12-12-13-13-15-13--|
G|-12-14-14-14----14.-14--------------------|
D|------------------------------------------|
A|------------------------------------------|
E|------------------------------------------|

E|------------------------12-----17-17-19--17-17-19-19-20--|
B|-12-13-15-15-15-15-15------------------------------------|
G|---------------------------------------------------------|
D|---------------------------------------------------------|
A|---------------------------------------------------------|
E|---------------------------------------------------------|

E|-17-17-19--19/20-17-19/20-17-19/20-17-19/20-17--|
B|------------------------------------------------|
G|------------------------------------------------|
D|------------------------------------------------|
A|------------------------------------------------|
E|------------------------------------------------|

e|-<20>...--20-17----17.-----------------------------
B|----------------20-----20-17----17-----------------|
G|-----------------------------19----19-17----17/19--|
D|-----------------------------------------19--------|
A|---------------------------------------------------|
E|---------------------------------------------------|

E|-12/13/12/13/12/13/12/13/12..--------------------|
B|-------------------------------------------------|
G|-------------------------------------------------|
D|-------------------------------------------------|
A|-------------------------------------------------|
E|-------------------------------------------------|

E|---12-------------------------------------------------------|
B|-13--15-13-12---------------------------------------13-13---|
G|-------------14-13-----------------------14-14-14-14--------|
D|------------------15-14-12----14-14-14-14-------------------|
A|------------------------------------------------------------|
E|------------------------------------------------------------|

E|-17| >>>>>--19>>>>-20>>>>-22---------------|
B|-17| >>>>>---------------------------------|
G|----------------------------12/14-14-14--|
D|-----------------------------------------|
A|-----------------------------------------|
E|-----------------------------------------|

E|--------|
                º-| ¤    ¤ |-º
                º-|  LuïS  |-º
                º-| ¤    ¤ |-º
                          /
                    |    |
        ·===========================·
        ·===========================·
Composição de Carlos Patato Valdes / Eugenio F. Arango
10 exibições
    • ½ Tom
    • Am
    • Bbm
    • Bm
    • Cm
    • C#m
    • Dm
    • Ebm
    • Em
    • Fm
    • F#m
    • Gm
    • G#m
  • Adicionar à lista

    0 comentários

    Ver todos os comentários
    00:00 / 00:00
    Outros vídeos desta música
    Repetir Qualidade Automático
    Outros vídeos desta música
    00:00 / 00:00
    Automático

    Cifra Club Pro

    Aproveite o Cifra Club com benefícios exclusivos e sem anúncios
    Cifra Club Pro
    Aproveite o Cifra Club com benefícios exclusivos e sem anúncios
    OK