Cifra Club

Aprenda

Nothing At All

Santana

Cifra: Principal (violão e guitarra)
Já pensou em usar uma coleção de roupas do Cifra Club? Responda as perguntas abaixo e nos ajude nessa missão! →
tom: E
Intro

E|---3-5-6---6-5-3-5-5h6-5-6--3-5-6-8-6-5-5h6---3/5-3-------
B-3------------------------------------------3-------------
G|----------------------------------------------------------
D|----------------------------------------------------------
A|----------------------------------------------------------
E|----------------------------------------------------------
                          Repeat until "from knowing that"
E|--------------------------|-3----3--3----3----|--------------
B|--3-3---------------------|-3----2--3----2----|--------------
G|-----5-5--3-2-------------|-3----3--3----3----|--------------
D|-------------5------------|-5----0--5----0----|--------------
A|--------------------------|-5-------5---------|--------------
E|--------------------------|-3-------3---------|--------------

E-2----4---5---7--5---4--5---4----4--2----2--4--2--1-------
B|----------------------------------------------------------
G|----------------------------------------------------------
D|----------------------------------------------------------
A|----------------------------------------------------------
E|----------------------------------------------------------

Verse riff
E|--3--3-3--3---3--3--3---3---------------------------------
B|--3--3-3--2---3--3--3---2---------------------------------
G|--3--3-3--3---3--3--3---3---------------------------------
D|--5--5-5--0---5--5--5---0---------------------------------
A|--5--5-5------5--5--5-------------------------------------
E|--3--3-3------3--3--3-------------------------------------

 Letra
-=====-

I am a victim of my time
A produce of my age
There’s no choosing my direction
I was a holy man but now
With all my trials behind me
I am weak in my conviction

And so I walk to try to get away
Knowing that someday I will finally have to face
The fear that will come from knowing that
The one thing I had left was you
And now you’re gone

You were a victim of my crimes
A product of my rage
You were a beautiful distraction
I kept you locked away outside
Let misery provide
And now I am ashamed

And so I walk to try to find a space
Where I can be alone to live with my mistakes
And the fear that will come
From knowing that the one thing
I had left was you
And now you’re gone

Chorus
Is there nothing at all
That i can do to turn your heart
Is there nothing to lean on
That could help erase the scars
Te quiero - me quiero
And I could use a little strength before I fall
Is there nothing at all

I am victim of my time
A product of the age
You alone are my obsession
You were the one I left behind
You’ve been heavy on my mind
It’s been a lonely road I’ve traveled

And so I walk to try to get away
Knowing that someday I will finally have to face
The fear that will come from knowing that
The one thing I had left was you 
And now you’re gone

Chorus
Is there nothing at all
That I can do to turn your heart
Is there nothing to lean on
That cold help erase the scars
Te quiero - me quiero
And I could use a little strength before I fall
Is there nothing at all
Composição de Corey Rooney / Rob Thomas
Colaboração e revisão:
  • eder jr
9.484 exibições
    • ½ Tom
    • A
    • Bb
    • B
    • C
    • Db
    • D
    • Eb
    • E
    • F
    • F#
    • G
    • Ab
  • Adicionar à lista

    0 comentários

    Ver todos os comentários
    00:00 / 00:00
    outros vídeos desta música
    repetir qualidade Automático
    Outros vídeos desta música
    00:00 / 00:00
    Automático

    Cifra Club Pro

    Aproveite o Cifra Club com benefícios exclusivos e sem anúncios
    Cifra Club Pro
    Aproveite o Cifra Club com benefícios exclusivos e sem anúncios
    OK