Cifra Club

Yaleo

Santana

Cifra: Principal (violão e guitarra)
tom: C
E|--3--| = Trecillos             h = Lidado ascendente o Hammer on
b = Estiradas o Bend         r = Soltar la estirada
x = Silencio de cuerda        s = Mover la pua rapido y continuo
                              t = tapping


Intro:

E|------------------------------10----------------10-------10-12p10h12-----|
B|------------10h12-------10h12----10-------10h12----10-12-----------------|
G|-------------------------------------------------------------------------|
D|-------------------------------------------------------------------------|
A|-------------------------------------------------------------------------|
E|-------------------------------------------------------------------------|

Yo la vi cantando en Paris
E|-------------|
B|-------------|
G|------7b9----|
D|-7b9---------|
A|-------------|
E|-------------|

Ella quiso estar cerca de mi
E|---------------|
B|-----8-7-------|
G|---9-----7-9---|
D|-9-------------|
A|---------------|
E|---------------|

no me sorprendi cuando dijo Yaleo
E|-----------------7--------------|
B|---------------8---8---10-8-----|
G|-----------7-9-------9------9---|
D|-------7-9----------------------|
A|-7--10--------------------------|
E|--------------------------------|

Vamos caminando el isc
E|-----------------|
B|-10b12-10-8------|
G|------------7-7--|
D|-----------------|
A|-----------------|
E|-----------------|

Tomando vino partiendo pan
E|------------------------------|
B|---------8-10b12-10b12--8h10--|
G|-----7-9----------------------|
D|-7h9--------------------------|
A|------------------------------|
E|------------------------------|

Ella dijo dame dame ya
E|-------10------|
B|-10h12----10---|
G|---------------|
D|---------------|
A|---------------|
E|---------------|

Yaleo
E|-7h10p7h10p7h10p7h10p7h10p7h10p7-----|
B|--------------------------------------|
G|--------------------------------------|
D|--------------------------------------|
A|--------------------------------------|
E|--------------------------------------|

Yaleo, Yaleo
E|----------------------------------------------------------------------------|
B|-----------------------------10^-10p8---------------------------------------|
G|-*12-12-12-12-12-----------9-----------*12-12-12-12-12------------------------|
D|----------------------------------------------------------------------------|
A|----------------------------------------------------------------------------|
E|----------------------------------------------------------------------------|
* Con efecto wah-wah


E|--------------------------------------------15b17---r-12s--15p12---------------------|
B|-15b17----15p12----------------------------------------------------------------------|
G|--------------14b16r12---14p12--------------------------------------14b16-14p12------|
D|-----------------------14-----14-----------------------------------------------14----|
A|-------------------------------------------------------------------------------------|
E|-------------------------------------------------------------------------------------|

E|----------------15p12-------------|
B|--15b17s-15b17s------15b17s-------|
G|----------------------------------|
D|----------------------------------|
A|----------------------------------|
E|----------------------------------|

Tika ngay wa yo
E|----------------------------------------------------------------------------|
B|------------12--------------------------10b12--8h10--8h10p8-------------------|
G|--------------14p12--14p12----------------------------------9------------------|
D|-------------------14-----14------------------------------------------------|
A|----------------------------------------------------------------------------|
E|----------------------------------------------------------------------------|

E|--12-12--12-12----------------------------------------------------------|
B|--12-12--12-12------------------15b17--15p12----------------------------|
G|--12-12--12-12-------------------------------14b16r12--14p12------------|
D|-----------------------------------------------------14-----14-----12---|
A|--------------------------------------------------------------12h14-----|
E|------------------------------------------------------------------------|

E|------------------------------------|
B|------------------------------------|
G|---------------------7h9p7h9p7h9p7--|
D|-----------------7h9----------------|
A|----------7---10--------------------|
E|-7---10-----------------------------|

Yaleo Yaleo
E|----------------------------------------------------------------------------|
B|----------------------------------------------------------------------------|
G|-*12-12-12-12-12---------------14^r12--12-----------------------------------|
D|-------------------------------------14--14---------------------------------|
A|----------------------------------------------------------------------------|
E|----------------------------------------------------------------------------|
* wah-wah


E|------------------------------------------------|
B|-------15b17----15p12---------------------------|
G|---------------------14b16r12--14p12------------|
D|-----------------------------14-----14----------|
A|------------------------------------------------|
E|------------------------------------------------|

E|-15b20-r-12h15p12-12-12-12-12-12-12-12-12-12-15p12-12------12---------------------|
B|-----------------------------------------------------15b17----15p12---------------|
G|-------------------------------------------------------------------14b16r12------|
D|----------------------------------------------------------------------------------|
A|----------------------------------------------------------------------------------|
E|----------------------------------------------------------------------------------|

tika ngai wa yo
E|----------------------------------------------------9b--9----7-----------------|
B|----------------------------------------------------------10-------------------|
G|----------------14b16-14p12--14p12---------------------------------------------|
D|---------------------------14-----14-------------------------------------------|
A|-------------------------------------------------------------------------------|
E|-------------------------------------------------------------------------------|

E|------------------------------------------------------------------------------|
B|-------12------------------------15b17s---------------------------------------|
G|---------14p12--14p12--------------------12*12*-----------------------------|
D|--------------14-----14-------------------------------------------------------|
A|------------------------------------------------------------------------------|
E|------------------------------------------------------------------------------|
*wah-wah



solo:

E|----------------------------------------------------------------------------|
B|-12-----------------------------------------15-12h15p12---------------------|
G|----------------12-----------------------14---------------------------------|
D|-------------------14-12-14-12--------15------------------------------------|
A|----------------------------------------------------------------------------|
E|----------------------------------------------------------------------------|

E|------------------------------------------------------------------------------|
B|-13-12-------------------------------12----12--------13-12--------------------|
G|-------12-------------------------------14-----------------12-----------------|
D|----------14-12h14p12--12---------14--------------------------14-12-----------|
A|---------------------15-------------------------------------------------------|
E|------------------------------------------------------------------------------|

E|-------------------------------12--------15s-14p12-15s-14p12------------------|
B|-------------12-12-13s-15s----------------------------------------------------|
G|-------12-14------------------------------------------------------------------|
D|-14-15------------------------------------------------------------------------|
A|------------------------------------------------------------------------------|
E|------------------------------------------------------------------------------|

E|-15p14p12-15p14p12-15p14p12-----------------------------------------------------|
B|--------------------------------------------------------------------------------|
G|--------------------------------------------------------------------------------|
D|--------------------------------------------------------------------------------|
A|------------------------------12b14-12b14---12-10-12b14r10-12p10--14------------|
E|----------------------------------------------------------------12--------------|

E|-20b22-------/-15-20b22-20b22-(x7)--15-20b22-15-20b22-20b22-20b22-------------|
B|------------------------------------------------------------------------------|
G|------------------------------------------------------------------------------|
D|------------------------------------------------------------------------------|
A|------------------------------------------------------------------------------|
E|------------------------------------------------------------------------------|

E|-22b24-22b24-22b24-22b24| (x6) seguir repitiendo escucha el Cd
B|----------------------------------------------------------------------------|
G|----------------------------------------------------------------------------|
D|----------------------------------------------------------------------------|
A|----------------------------------------------------------------------------|
E|----------------------------------------------------------------------------|


Yaleo
Yaleo
Yaleo
Yaleo
E|------------------------------------------------------------12------------------|
B|-15b17---15p12-----------------------------------------12h15--------------------|
G|--------------14b16-14p12-------------12----14p12--------------14p12------------|
D|-------------------------14---x-x-x-x----14------14-----------------14----------|
A|--------------------------------------------------------------------------------|
E|--------------------------------------------------------------------------------|

E|---------------------17b19r--15-17b19--15---------------------------15------------|
B|-----------------------------------------17-17-17-17-17-17-17-17-17---------------|
G|-x-x-x-x-12-----------------------------------------------------------------------|
D|------------14--------------------------------------------------------------------|
A|----------------------------------------------------------------------------------|
E|----------------------------------------------------------------------------------|

E|------12------------------------------------12-----12-------------------------|
B|--------15p12--------------------------12h15--12h15--15p12--------------------|
G|-------------14p12--14p12-------12------------------------14p12--------------|
D|------------------14-----14-------14------------------------------------------|
A|------------------------------------------------------------------------------|
E|------------------------------------------------------------------------------|

E|----------------------------------------------------17-----17------20b22--------|
B|-10b15------r10-r10-r10-r10-r10----------------17h19--20p17--20p17--------------|
G|--------------------------------------------------------------------------------|
D|--------------------------------------------------------------------------------|
A|--------------------------------------------------------------------------------|
E|--------------------------------------------------------------------------------|

E|------------------------------------------------------------22p19h22p19h22p19h22--|
B|-14b15r-12-------------------------17s-19s-20s--------22b24-----------------------|
G|-----------14p12h14b16-14p12------------------------------------------------------|
D|----------------------------14--------------------19s-----------------------------|
A|----------------------------------------------------------------------------------|
E|----------------------------------------------------------------------------------|

E|-22b24-22b24-22b24-22b24-22b24---------------12s-----12s----------------------------|
B|--------------------------------------15b17-----15b17-----------14b15r-12-----------|
G|--------------------------------------------------------------------------14p12-----|
D|-------------------------------------------------------------------------------14---|
A|------------------------------------------------------------------------------------|
E|------------------------------------------------------------------------------------|

E|-12------------------------------------------------------------------------12--|
B|------15p12----------------------------------------------------------------12--|
G|-----------14b16r-14p12----------------------------12s14b16-14p12--12h14b16----|
D|-----------------14-----14----------------------------------------14-----------|
A|--------------------------------12p9h12p9h12p9h12p9----------------------------|
E|-------------------------------------------------------------------------------|

E|------------------------------------------22p19h22p19h22p19h22p19h22-|
B|-15b17s-15b17s--------------------22b24------------------------------|
G|---------------------------------------------------------------------|
D|--------------------14s-16s-17s-19-----------------------------------|
A|---------------------------------------------------------------------|
E|---------------------------------------------------------------------|

E|-19s-------------------------12------12-------------------------------------------|
B|--------20--------15b17--------15b17---15p12--------------------------------------|
G|--------------------------------------------14p12--14p12--12h14b16--r--14b16------|
D|-------------------------------------------------14-----14------------------------|
A|----------------------------------------------------------------------------------|
E|----------------------------------------------------------------------------------|

E|-------------------|
B|-------------------|
G|-r-14p12-----------|
D|----------14-------|
A|-------------------|
E|-------------------|
00:00 / 00:00
Outros vídeos desta música
Repetir
Outros vídeos desta música
Composição de Christian Polloni / Shakara Mutela
5 exibições
    • ½ Tom
    • A
    • Bb
    • B
    • C
    • Db
    • D
    • Eb
    • E
    • F
    • F#
    • G
    • Ab
  • Adicionar à lista

    0 comentários

    Ver todos os comentários
    00:00 / 00:00

    Cifra Club Pro

    Aproveite o Cifra Club com benefícios exclusivos e sem anúncios
    Cifra Club Pro
    Aproveite o Cifra Club com benefícios exclusivos e sem anúncios
    OK