Cifra Club

Parte de Mí

Saratoga

Cifra: Principal (violão e guitarra)
tom: Em
P=pull off
    Em     D             C 
E|----------------3p2-------------------------------------------|
B|-----0-------3-----3--------1---------------------------------|
G|---0--0-----2-2-----2-----0--0--------0----0------------------|
D|--2-2--2-0-0-------------2-2--2---0--0-0--0-0-----------------|
A|------------------------3-------------------------------------|
E|-0----------------------------------3----2--------------------|

se repite mim y re y luego rasguea C  y G  

entre medio de los rasgueos apatrecen arpegios, que son la
ultima parte del arpegio anterior.(despues de C )

el punteo:
v= vibratro
h=hammer on
E|-9/11-9-11-13-11-13-14-13-10-11-10-----------------------------------|
B|-----------------------------------9-11-12-11-9-11-9-11-12-11-9-11/1-|
G|---------------------------------------------------------------------|

E|-----------5-------5h7-7/14-14-12-14/1------17-16-14-14-16-17p16p14--|
B|-------5-7---7-5-7---------------------12v---------------------------|
G|-7-5-7---------------------------------------------------------------|

e|-14-14-16-17-16-14-16-14-14/12-12--14-12/10-10/12-12/14-14/16-16/13-|

e|13/14-14v
00:00 / 00:00
Outros vídeos desta música
Repetir
Outros vídeos desta música
Compositor não encontrado.
8 exibições
    • ½ Tom
    • Am
    • Bbm
    • Bm
    • Cm
    • C#m
    • Dm
    • Ebm
    • Em
    • Fm
    • F#m
    • Gm
    • G#m
  • Adicionar à lista

    0 comentários

    Ver todos os comentários

    Conseguiu tocar?

    0 Tocaram 0 Ainda não

    Grave um vídeo tocando Parte de Mí e nos envie!

    00:00 / 00:00

    Cifra Club Pro

    Aproveite o Cifra Club com benefícios exclusivos e sem anúncios
    Cifra Club Pro
    Aproveite o Cifra Club com benefícios exclusivos e sem anúncios
    OK