Cifra Club

Bones

Saves The Day

Cifra (violão e guitarra)
Selo Cifra Club: esta cifra foi revisada para atender aos critérios oficiais da nossa Equipe de Qualidade.
tom: Gm
                                    *
E|-------------------------------------------|
B|--/12-12-12-12-12-12-10-8-7-7-7-7-7-7-7-7--| (on the 4th, 6th, and 8th time,
G|--/8--8--8--8--8--8--8--8-7-7-7-7-7-7-7-7--| slightly bend up one of the G
D|-------------------------------------------| strings while playing this note,
A|-------------------------------------------| marked with an asterisk.)
E|-------------------------------------------|


(0:37) Verse  x4

 -No longer mute the notes

E|--------------------------------------------|
B|--/12-12-12-12-12-12-10-8-7-7-7-7-7^-7-7-7--|
G|--/8--8--8--8--8--8--8--8-7-7-7-7-7^-7-7-7--|
D|--------------------------------------------|
A|--------------------------------------------|
E|--------------------------------------------|


(0:54) "Then they'll drive..."

E|---------|
B|---------|
G|---------|
D|--1>>>>--|
A|--1>>>>--|
E|--1>>>>--|


(0:56) Verse 2

E|------------------------------------------------|
B|------------------------------------------------|
G|------------------------------------------------|
D|--10-10--10-10-10-10--10-10--6-6--6-6-6-6--6-6--|
A|--10-10--10-10-10-10--10-10--6-6--6-6-6-6--6-6--|
E|--10-10--10-10-10-10--10-10--6-6--6-6-6-6--6-6--|

E|----------------------------------------|
B|----------------------------------------|
G|--8-8--8-8-8-8--8-8--8-8--8-8-8-8--8-8--|
D|--8-8--8-8-8-8--8-8--8-8--8-8-8-8--8-8--|
A|--6-6--6-6-6-6--6-6--6-6--6-6-6-6--6-6--|
E|----------------------------------------|

E|------------------------------------------------|
B|------------------------------------------------|
G|------------------------------------------------|
D|--10-10--10-10-10-10--10-10--6-6--6-6-6-6--6-6--|
A|--10-10--10-10-10-10--10-10--6-6--6-6-6-6--6-6--|
E|--10-10--10-10-10-10--10-10--6-6--6-6-6-6--6-6--|

E|---------------------------------------|
B|---------------------------------------|
G|--8-8--8-8-8-8--8-8--------------------|
D|--8-8--8-8-8-8--8-8---111-333-555-666--|
A|--6-6--6-6-6-6--6-6---111-333-555-666--|
E|----------------------111-333-555-666--|



(1:12) Verse 2 Part 2

E|-------------------------------------------|
B|-------------------------------------------|
G|-------------------------------------------|
D|--10-10-10-10-10-10-10-10-6-6-6-6-6-6-6-6--|
A|--10-10-10-10-10-10-10-10-6-6-6-6-6-6-6-6--|
E|--10-10-10-10-10-10-10-10-6-6-6-6-6-6-6-6--|

E|-----------------------------------|
B|-----------------------------------|
G|--8-8-8-8-8-8-8-8-8-8-8-8-8-8-8-8--|
D|--8-8-8-8-8-8-8-8-8-8-8-8-8-8-8-8--|
A|--6-6-6-6-6-6-6-6-6-6-6-6-6-6-6-6--|
E|-----------------------------------|

E|-------------------------------------------|
B|-------------------------------------------|
G|-------------------------------------------|
D|--10-10-10-10-10-10-10-10-6-6-6-6-6-6-6-6--|
A|--10-10-10-10-10-10-10-10-6-6-6-6-6-6-6-6--|
E|--10-10-10-10-10-10-10-10-6-6-6-6-6-6-6-6--|

E|-------------------------------|
B|-------------------------------|
G|--8-8-8-8-8-8-8-8--------------|
D|--8-8-8-8-8-8-8-8--1--3--5--6--|
A|--6-6-6-6-6-6-6-6--1--3--5--6--|
E|-------------------1--3--5--6--|


(1:29) Bridge

E|----------------------------------------------------->>>-|
B|----------------------------------------------------->>>-|
G|--------------/8-7-7-7-8-7-7-7-7-7-7-8-7-7-7---P| ICK-->>>-|
D|--/10>>-\6>>--/8-8-8-8-8-8-8-8-8-8-8-8-8-8-8---S| LIDE->>>-|
A|--/10>>-\6>>--/6-6-6-6-6-6-6-6-6-6-6-6-6-6-6--------->>>-|
E|--/10>>-\6>>----------------------------------------->>>-|



(1:36) Breakdown

E|-----------------------------------------------|
B|-----------------------------------------------|
G|--x-8-8-8-8-----------x-10-10-10-10------------|
D|--x-8-8-8-8-x-8-8-8-8-x-10-10-10-10-x-6-6-6-6--| x3
A|--x-6-6-6-6-x-8-8-8-8-x-8--8--8--8--x-6-6-6-6--|
E|------------x-8-8-8-8---------------x-6-6-6-6--|

E|-----------------------------------------------------|
B|-----------------------------------------------------|
G|--x-8-8-8-8------------10-10-10-10-------------------|
D|--x-8-8-8-8-x-8-8-8-8--10-10-10-10--6-6-6-6-6-6-6-6--|
A|--x-6-6-6-6-x-8-8-8-8--8--8--8--8---6-6-6-6-6-6-6-6--|
E|------------x-8-8-8-8---------------6-6-6-6-6-6-6-6--|


(1:55) Outro "Boooooones..."

 -Two guitars are playing in this part


Guitar One
E|------------------------------------------|
B|------------------------------------------|
G|--8-8-8-8-----------10-10-10-10-----------|
D|--8-8-8-8--8-8-8-8--10-10-10-10--6-6-6-6--| x4
A|--6-6-6-6--8-8-8-8--8--8--8--8---6-6-6-6--|
E|-----------8-8-8-8---------------6-6-6-6--|


Guitar Two (playing along with guitar one)
E|-------------------------------------|
B|-------------------------------------|
G|--77-8-7--777-8-7--777-8-7--777-8-7--|
D|--88-8-8--888-8-8--888-8-8--888-8-8--| x2
A|-------------------------------------|
E|-------------------------------------|

E|--66-6-6--666-6-6--666-6-6--6-----6---6---6--|
B|------------------------------7/8---8---8----|
G|---------------------------------------------|
D|---------------------------------------------|
A|---------------------------------------------|
E|---------------------------------------------|

E|--66-6-6--666-6-6--666-6-6-------6---6-----6----|
B|-----------------------------7/8---8----8--8p7--|
G|------------------------------------------------|
D|------------------------------------------------|
A|------------------------------------------------|
E|------------------------------------------------|


(2:15) End On...

Guitar One               Guitar Two
E|----------------| |----------------|
B|----------------| |----------------|
G|----------------| |--8~~-----------|
D|--1~~-----------| |--8~~-----------|
A|--1~~-----------| |--6~~-----------|
E|--1~~-----------| |----------------|
Outros vídeos desta música
    0 exibições
      • ½ Tom
      • Am
      • Bbm
      • Bm
      • Cm
      • C#m
      • Dm
      • Ebm
      • Em
      • Fm
      • F#m
      • Gm
      • G#m
    • Adicionar à lista

    Afinação da cifra

    Afinador online

      0 comentários

      Ver todos os comentários

      Entre para o Cifra Club PRO

      Tenha acesso a benefícios exclusivos no App e no Site

      • Chega de anúncios

      • Badges exclusivas

      • Mais recursos no app do Afinador

      • Atendimento Prioritário

      • Aumente seu limite de lista

      • Ajude a produzir mais conteúdo

      Cifra Club Pro

      Aproveite o Cifra Club com benefícios exclusivos e sem anúncios
      Cifra Club Pro
      Aproveite o Cifra Club com benefícios exclusivos e sem anúncios
      Ops (: Contenido disponible sólo en portugués.
      OK