Cifra Club

Passageiro

Scalene

Cifra: Principal (violão e guitarra)
Selo Cifra Club: esta cifra foi revisada para atender aos critérios oficiais da nossa Equipe de Qualidade.
tom: G
[Intro] Em  Bm  Em  Bm

[Solo Intro]

    Em
E|--5h7p5-----------------------------------|
B|--------8--7p3----------------------------|
G|---------------4--------------------------|
D|------------------------------------------|
A|------------------------------------------|
E|------------------------------------------|

    Bm
E|------------------------------------------|
B|------5-----------------------------------|
G|--2h4---4---------------------------------|
D|------------------------------------------|
A|------------------------------------------|
E|------------------------------------------|

    Em
E|--5h7p5-----------------------------------|
B|--------8--7p3----------------------------|
G|---------------4--------------------------|
D|------------------------------------------|
A|------------------------------------------|
E|------------------------------------------|

    Bm
E|-------3-3--2-----------------------------|
B|------------------------------------------|
G|--2h4-------------------------------------|
D|------------------------------------------|
A|------------------------------------------|
E|------------------------------------------|

[Primeira Parte]

Em                 Bm
Parei de querer mudar
D                C
Acho que não é desejo
    Em                Bm
Que faz a gente melhorar
    D                 C
Preciso me aceitar inteiro
Em                 Bm
Parei de querer mudar
D                 C
Acho que só muda sendo
Em                Bm
Tanta coisa já mudou e é bom
     D               C
Mas bate certo desespero

[Refrão]

     D4/A
Navegar
            C/G
Esse mar imenso
         D4/A
O que será
            C/G
Nosso firmamento?

[Segunda Parte]

Em                   Bm
Tanta coisa pra arrumar
D               Am
Ego tá me agonizando
  Em               Bm
O Horizonte não tem fim
    D                Am
Não há conceito de começo
Em               Bm
Fôlego pra mergulhar
    D                Am
Em tanto descontentamento
   Em                Bm
O mundo tá um caos, enfim
    D                Am
Talvez em um novo momento

[Refrão]

     D4/A
Navegar
           C/G
Esse mar imenso
         D4/A
O que será
            C/G
Nosso firmamento?
     Bm
Navegar
           Am
Esse mar imenso
    Bm
Suportar
             
Tudo é passageiro

[Solo] Am  D7  Am  D7  
       Am  D7  F  C/G
   
E|-8p7h8--7-------10p8h10--8-7--8p7h8------2h3-5------|
B|-----------10-------------------------10/-----------|
G|----------------------------------------------------|
D|----------------------------------------------------|
A|----------------------------------------------------|
E|----------------------------------------------------|

E|-8p7h8--7-------10p8h10--8-7--12p10h12---12-8-8-7-5-|
B|-----------10---------------------------------------|
G|----------------------------------------------------|
D|----------------------------------------------------|
A|----------------------------------------------------|
E|----------------------------------------------------|

[Refrão Final]
     
     D4/A
Navegar
           C/G
Esse mar imenso
         D4/A
O que será
            C/G
Nosso firmamento?
     Bm
Navegar
           Am
Esse mar imenso
    D4/A
Suportar
             C/G
Tudo é passageiro
Outros vídeos desta música
    2.047 exibições
      • ½ Tom
      • A
      • Bb
      • B
      • C
      • Db
      • D
      • Eb
      • E
      • F
      • F#
      • G
      • Ab
    • Adicionar à lista

    Afinação da cifra

    Afinador online

      0 comentários

      Ver todos os comentários

      Entre para o Cifra Club PRO

      Tenha acesso a benefícios exclusivos no App e no Site

      • Chega de anúncios

      • Badges exclusivas

      • Mais recursos no app do Afinador

      • Atendimento Prioritário

      • Aumente seu limite de lista

      • Ajude a produzir mais conteúdo

      Cifra Club Pro

      Aproveite o Cifra Club com benefícios exclusivos e sem anúncios
      Cifra Club Pro
      Aproveite o Cifra Club com benefícios exclusivos e sem anúncios
      Ops (: Contenido disponible sólo en portugués.
      OK