Cifra Club

Aprenda

Whoring Streets

Scars on Broadway

Cifra: Principal (violão e guitarra)
tom: A
(afinação Eb| Bb| Gb| Db| Ab| Db)

(intro)
          C#                      E
D|------0-------0---------------3-------3--------
A|----0---0-------0---0-----------3-------3---3--
D|--0---------0-----0-------3---------3-----3----

           G#                     A
D|------7-------7---------------8-------8--------
A|--------7-------7---7-----------8-------8---8--
D|---7--------7-----7-------8---------8-----8----

(repita a sequência abaixo até o solo)
          C#                      E
D|------0-------0---------------3-------3-------- |
A|--------0-------0---0-----------3-------3---3-- |
D|--0---------0-----0-------3---------3-----3---- |

  G#                     A
D|------7-------7---------------8-------8--------
A|--------7-------7---7-----------8-------8---8--
D|---7--------7-----7-------8---------8-----8----

(*continua o mesmo solo acima.
as notas estão marcando o tempo
em que devem ser tocadas)

C#            E
     Is there anybody here
               G#
Who hears me crying?
      A
I'm dying.

C#            E
     Is there anybody here
          G#
When it's over?
A
Over?
                     C#
I'm just passing the time
                  E
Wondering how you people will ever survive
G#
Whoring down your whoring streets
A
Killing you while you're killing me

     C#                   E
It's time to show all you people you'll never survive
G#
Whoring down your whoring streets
A
Killing you while you're killing me...

            C#          E           G#          A
G|----7--7--9--10-------------------------------------
D|----7--7--9--10-3--3--3--3--7--7--7--7--8--8--8--8--
A|----5--5--7--8--3--3--3--3--7--7--7--7--8--8--8--8--
D|----------------3--3--3--3--7--7--7--7--8--8--8--8--

(mantém o riff acima)

C#            E
     Is there anybody here
             G#
Who hears me crying?
    A
I'm dying.

C#            E
     Is there anybody here
          G#
When it's over?
A
Over?
         C#
I'm just passing the time
                  E
Wondering how you people will ever survive
G#
Whoring down your whoring streets
A
Killing you while you're killing me

     C#                   E
It's time to show all you people you'll never survive
G#
Whoring down your whoring streets
A
Killing you while you're killing me...

                                           Killing you while you're killing me...
G|----7--7--9--10-------------------------------------
D|----7--7--9--10-3--3--3--3--7--7--7--7--8--8--8--8--
A|----5--5--7--8--3--3--3--3--7--7--7--7--8--8--8--8--
D|----------------3--3--3--3--7--7--7--7--8--8--8--8--

(solo)
E|--------------------------------------------|
B|--13---11-10----11--10-8-10----11--10-8-10--|
G|--------------------------------------------|  2x
D|--------------------------------------------|
A|--------------------------------------------|
D|--------------------------------------------|

                              Whoring down  Killing you
                              your whoring  while you're
                              streets       killing me..
G|----7--7--9--10--------------------------------------
D|----7--7--9--10-3--3--3--3--7--7--7--7---8--8--8--8--
A|----5--5--7--8--3--3--3--3--7--7--7--7---8--8--8--8--
D|----------------3--3--3--3--7--7--7--7---8--8--8--8--

     C#                      E
                   Is there anybody here      Who hears me..
D|------0-------0---------------3-------3--------
A|----0---0-------0---0-----------3-------3---3--
D|--0---------0-----0-------3---------3-----3----

      G#                     A
   ..crying?            I'm dying.
D|------7-------7---------------8-------8-----------0--
A|--------7-------7---7-----------8-------8---8-----0--
D|---7--------7-----7-------8---------8-----8-------0--
Composição de Daron Malakian
Colaboração e revisão:
  • Marcus Vinicius
  • vinicius tavares
  • Daniel Silva
9.986 exibições
    • ½ Tom
    • A
    • Bb
    • B
    • C
    • Db
    • D
    • Eb
    • E
    • F
    • F#
    • G
    • Ab
  • Adicionar à lista

    0 comentários

    Ver todos os comentários

    Conseguiu tocar?

    7 Tocaram 0 Ainda não

    Grave um vídeo tocando Whoring Streets e nos envie!

    00:00 / 00:00
    Outros vídeos desta música
    Repetir Qualidade Automático
    Outros vídeos desta música
    00:00 / 00:00
    Automático

    Cifra Club Pro

    Aproveite o Cifra Club com benefícios exclusivos e sem anúncios
    Cifra Club Pro
    Aproveite o Cifra Club com benefícios exclusivos e sem anúncios
    OK