Cifra Club

Aprenda

World Long Gone

Scars on Broadway

Cifra: Principal (violão e guitarra)
tom: Db
Afinação
Corda: 1ª   2ª   3ª   4ª   5ª   6ª
       Eb | Bb | Gb|- Db|- Ab|- Db


[Riff 1]

      Db5             Db5             Db5             Db5 
Gb|---7-7-7-7-7-7-7---7-7-7-7-7-7-7---7-7-7-7-7-7-7---7-7-7-7-7-7-7--
Db|---5-5-5-5-5-5-5---7-7-7-7-7-7-7---7-7-7-7-7-7-7---7-7-7-7-7-7-7--
Ab|---5-5-5-5-5-5-5---5-5-5-5-5-5-5---5-5-5-5-5-5-5---5-5-5-5-5-5-5--
      B5              B5              B5              B5 
Gb|---5-5-5-5-5-5-5---5-5-5-5-5-5-5---5-5-5-5-5-5-5---5-5-5-5-5-5-5--
Db|---5-5-5-5-5-5-5---5-5-5-5-5-5-5---5-5-5-5-5-5-5---5-5-5-5-5-5-5--
Ab|---3-3-3-3-3-3-3---3-3-3-3-3-3-3---3-3-3-3-3-3-3---3-3-3-3-3-3-3--


[Riff 2]
(*abafado)

      Db5
Gb|---7-7-7-7-7-7-7-7-7-7-7-7-7-7-7-7-7-7-7-7--
Db|---7-7-7-7-7-7-7-7-7-7-7-7-7-7-7-7-7-7-7-7--
Ab|---5-5-5-5-5-5-5-5-5-5-5-5-5-5-5-5-5-5-5-5--
      B5
Gb|---5-5-5-5-5-5-5-5-5-5-5-5-5-5-5-5-5-5-5-5--
Db|---5-5-5-5-5-5-5-5-5-5-5-5-5-5-5-5-5-5-5-5--
Ab|---3-3-3-3-3-3-3-3-3-3-3-3-3-3-3-3-3-3-3-3--


[Riff 3]

      A5                      Db5 
Gb|---3---3---3---3---3---3---7---7---7---7---7---7---
Db|---3---3---3---3---3---3---7---7---7---7---7---7---
Ab|---1---1---1---1---1---1---5---5---5---5---5---5---

      B5                      A5          Ab5
Gb|---5---5---5---5---5---5---3---3---3---2---2---2---
Db|---5---5---5---5---5---5---3---3---3---2---2---2---
Ab|---3---3---3---3---3---3---1---1---1---0---0---0---

[INTRO]
Ab|-----5------------------------------
Db|---7---7-8-5-7-3-5-2-3--0-2-3-5-3-2-
(4x)

[Riff 1]
Db5        Db5         Db5       Db5
Sometimes,      I said sometimes
       B5   B5            B5    B5
I go crazy,     like I'm crazy
          Db5       Db5         Db5      Db5
It takes patience,      lots of patience
           B5     B5          B5    B5
Then it's over,      fucking over


[Riff 2]
Db5              B5
   I look at the sky,faded
Db5            B5
   I read the stars

[Riff 3]
A5              Db5  
   Maybe I don't know
                     B5
How many people are starving
         A5    B5
In this world long gone


Repete o solo da [INTRO]


[Riff 1]
Db5        Db5         Db5       Db5
Sometimes,      I said sometimes
       B5   B5            B5    B5
I go crazy,     like I'm crazy
          Db5       Db5         Db5      Db5
It takes patience,      lots of patience
           B5     B5          B5    B5
Then it's over,      fucking over


[Riff 2]
Db5              B5
   I look at the sky,faded
Db5            B5
   I read the stars

[Riff 3]
A5              Db5  
   Maybe I don't know
                     B5
How many people are starving
A5              Db5  
   Maybe I don't know
                     B5
How many people are starving
         A5    B5
In this world long gone

Solo da [INTRO] 3x

Bb|------------------------------------------------------------6-5--------
Gb|--------------------------------------------5-----5-7---5-7-----7-5-7--
Db|--------------------5-----5-7---5-7-8-5-7-8---7-8-----8----------------
Ab|---5---5--7-8-5-7-8---7-8-----8----------------------------------------
Db|-----7-----------------------------------------------------------------


[Riff 2]
Db5              B5
   I look at the sky,faded
Db5            B5
   I read the stars

[Riff 3]
A5              Db5  
   Maybe I don't know
                     B5
How many people are starving
A5              Db5  
   Maybe I don't know
                     B5
How many people are starving
         A5    B5
In this world long gone

Solo da [INTRO] 3x

Bb|------------------------------------------------------------6-5--------
Gb|--------------------------------------------5-----5-7---5-7-----7-5-7--
Db|--------------------5-----5-7---5-7-8-5-7-8---7-8-----8----------------
Ab|---5---5--7-8-5-7-8---7-8-----8----------------------------------------
Db|-----7-----------------------------------------------------------------
Composição de Daron Malakian
Colaboração e revisão:
  • Daniel Silva
9.928 exibições
    • ½ Tom
    • A
    • Bb
    • B
    • C
    • Db
    • D
    • Eb
    • E
    • F
    • F#
    • G
    • Ab
  • Adicionar à lista

    0 comentários

    Ver todos os comentários

    Conseguiu tocar?

    3 Tocaram 0 Ainda não

    Grave um vídeo tocando World Long Gone e nos envie!

    00:00 / 00:00
    Outros vídeos desta música
    Repetir Qualidade Automático
    Outros vídeos desta música
    00:00 / 00:00
    Automático

    Cifra Club Pro

    Aproveite o Cifra Club com benefícios exclusivos e sem anúncios
    Cifra Club Pro
    Aproveite o Cifra Club com benefícios exclusivos e sem anúncios
    OK