Cifra Club

Send Me An Angel

Scorpions

Cifra: Principal (violão e guitarra)
tom: A
[Intro] D#m  B  C#  A#m
        D#m  B  C# 
        D#m  B  C#  A#m 
        D#m  B  C# 
        D#m  B  C#  A#m 
        D#m  B  C# 
        D#m  B  C#  A#m
        D#m  B  C# 

[Solo da Introdução]

E|---12---14---10----10---12---------------------------------|
B|----------------12---------12---10------10----12-----------|
G|------------------------------------12---------------------|
D|-----------------------------------------------------------|
A|-----------------------------------------------------------|
E|-----------------------------------------------------------|

[Dedilhado]

E|---------------------------------------------------------------------------|
B|-------4--------4---------2------------2--------4------4-------------------|
G|--------3--------3---------1--------------3--------3------3-------2----2---|
D|--1----------------------------4-------------1------------------3---3----3-|
A|-----------2--------4------------1--------------------2-------4------------|
E|---------------------------------------------------------------------------|

   D#m        B        C#         A#m
The wise man said just walk this way
D#m     B          C#
To the dawn of the light
    D#m       B      C#      A#m
The wind will blow into your face
D#m     B             C#
As the years pass you by

D#m      B          C#      A#m
Hear this voice from deep inside
D#m       B           C#
It's the call of your heart
D#m        B        C#        A#m
Close your eyes and you will find
D#m       B        C#
The way out of the dark

Fm       Eb    Cm
  Here I am
          C#          Eb
Will You send me an angel?
Fm       Eb    Cm
  Here I am
       C#          Eb       Fm
In the Land of the Morning Star

D#m      B         C#        A#m
Wise man said just find your place
D#m    B          C#
In the eye of the storm
D#m      B      C#       A#m
Seek the roses along the way
D#m     B          C#
Just beware of the thorns

Fm      Eb    Cm
 Here I am
         C#         Eb
Will You send me an angel?
Fm      Eb    Cm
 Here I am
       C#          Eb       Fm
In the Land of the Morning Star

D#m      B         C#         A#m
Wise man said just raise your hand
D#m       B             C#
And reach out for the spell
D#m       B          C#       A#m
Find the door to the Promised Land
D#m     B           C#
Just believe in yourself

D#m       B         C#      A#m
Hear this voice from deep inside
D#m       B           C#
It's the call of your heart
 D#m        B       C#       A#m
Close your eyes and you will find
D#m     B          C#
The way out of the dark

Fm      Eb  Cm
 Here I am
         C#         Eb
Will You send me an angel?
Fm      Eb  Cm
 Here I am
       C#          Eb       Fm  Eb  Cm  Gm
In the Land of the Morning Star

Gm      F  Dm
 Here I am
         Eb         F
Will You send me an angel?
Gm      F  Dm
 Here I am
       Eb          F        Gm
In the Land of the Morning Star
Composição de Klaus Meine / Rudolf Schenker
319.189 exibições
    • ½ Tom
    • A
    • Bb
    • B
    • C
    • Db
    • D
    • Eb
    • E
    • F
    • F#
    • G
    • Ab
  • Adicionar à lista

    0 comentários

    Ver todos os comentários

    Conseguiu tocar?

    28 Tocaram 5 Ainda não

    Grave um vídeo tocando Send Me An Angel e nos envie!

    00:00 / 00:00
    Outros vídeos desta música
    Repetir Qualidade Automático
    Outros vídeos desta música
    00:00 / 00:00
    Automático

    Cifra Club Pro

    Aproveite o Cifra Club com benefícios exclusivos e sem anúncios
    Cifra Club Pro
    Aproveite o Cifra Club com benefícios exclusivos e sem anúncios
    OK