Enviar cifraEntrar

Still Loving You

Scorpions

Cifra: Principal
exibições 610.941
Tom: C
Introdução: Gm  Eb7M  D7
            Gm  Eb7M  D7

(Guitarra 1)


   Gm
E|---6-------6-------6-----9-8-6------------|
B|-----8-------8-------8---------8----------|
G|-------7-------7-------7------------------|
D|-0----------------------------------------|
A|---------8-------6------------------------|
E|------------------------------------------|


   Eb7M         D7
E|----6------------5------------------------|
B|------8------------7----------------------|
G|--------7------------5--------------------|
D|-8---------8--7---------7-----------------|
A|-6------------5---------------------------|
E|------------------------------------------|


   Gm
E|---6-------6-------6-----9-8-6------------|
B|-----8-------8-------8---------8----------|
G|-------7-------7-------7------------------|
D|-0----------------------------------------|
A|---------8-------6------------------------|
E|------------------------------------------|


   Eb7M         D7
E|----6------------5------------------------|
B|------8------------7----------------------|
G|--------7------------5--------------------|
D|-8---------8--7---------------------------|
A|-6------------5---------------------------|
E|------------------------------------------|


(Guitarra 2)


   Gm
E|-------3--------3--------3----------------|
B|-----3--------3--------3----2-1h2p1-------|
G|---3--------3--------3--------------3-0---|
D|-0--------3--------1----------------------|
A|------------------------------------------|
E|------------------------------------------|


   Eb7M         D7
E|----3----------------2--------------------|
B|------3----------1------------------------|
G|--------3----------2----------------------|
D|-1---------1--0---------------------------|
A|------------------------------------------|
E|------------------------------------------|



Primeira Parte:

(Guitarra 1)


   Gm
E|---------6-----6------6-----6-----6-------|
B|-----8-----8------------8-----8-----------|
G|---7---7-----7------------7-----7---------|
D|-0------------------0---------------------|
A|------------------------------------------|
E|------------------------------------------|


E|---6-----6-----6------6-----6-------------|
B|-----8-----8------------8-----8-----------|
G|-------7-----7------------7-----7/9-------|
D|-0------------------0---------------------|
A|------------------------------------------|
E|------------------------------------------|


   A
E|---9------9------9-------9------9------9--|
B|-----10-----10-------------10-----10------|
G|-9------9------9--------------9------9----|
D|----------------------11------------------|
A|------------------------------------------|
E|------------------------------------------|


   D
E|---2-----2-----2------2-----2-----2-------|
B|-----3-----3------------3-----3-----------|
G|-------2-----2------------2-----2---------|
D|-0------------------0---------------------|
A|------------------------------------------|
E|------------------------------------------|


   Gm
E|---6-----6-----6------6-----6-----6-------|
B|-----8-----8------------8-----8-----------|
G|-------7-----7------------7-----7---------|
D|-0------------------0---------------------|
A|------------------------------------------|
E|------------------------------------------|


E|---6-----6-----6------6-----6-------------|
B|-----8-----8------------8-----8-----------|
G|-------7-----7------------7-----7/9-------|
D|-0------------------0---------------------|
A|------------------------------------------|
E|------------------------------------------|


   A
E|---9------9------9-------9------9------9--|
B|-----10-----10-------------10-----10------|
G|-9------9------9--------------9------9----|
D|----------------------11------------------|
A|------------------------------------------|
E|------------------------------------------|


   D
E|---2-------2-2h3--2-----------------------|
B|-----3---3--------3-----------------------|
G|-------2----------------------------------|
D|-0----------------------------------------|
A|------------------------------------------|
E|------------------------------------------|


(Guitarra 2)


   Gm
E|---------------3------------------3-------|
B|-----------3------------------3-----------|
G|-------3-----3------------3-----3---------|
D|-----5---5--------------5---5-------------|
A|------------------------------------------|
E|------------------------------------------|


E|---------------3------------------3-------|
B|-----------3------------------3-----------|
G|-------3-----3------------3-----3---------|
D|-----5---5--------------5---5-------------|
A|------------------------------------------|
E|------------------------------------------|


   A
E|---------------0------------------0-------|
B|-----------2------------------2-----------|
G|-------2-----2------------2-----2---------|
D|---------2------------------2-------------|
A|-----0------------------0-----------------|
E|------------------------------------------|


   D
E|---------------2------------------2-------|
B|-----------3------------------3-----------|
G|-------2-----2------------2-----2---------|
D|-----0---0--------------0---0-------------|
A|------------------------------------------|
E|------------------------------------------|


   Gm
E|---------------3------------------3-------|
B|-----------3------------------3-----------|
G|-------3-----3------------3-----3---------|
D|-----5---5--------------5---5-------------|
A|------------------------------------------|
E|------------------------------------------|


E|---------------3------------------3-------|
B|-----------3------------------3-----------|
G|-------3-----3------------3-----3---------|
D|-----5---5--------------5---5-------------|
A|------------------------------------------|
E|------------------------------------------|


   A
E|---------------0------------------0-------|
B|-----------2------------------2-----------|
G|-------2-----2------------2-----2---------|
D|---------2------------------2-------------|
A|-----0------------------0-----------------|
E|------------------------------------------|


   D
E|---------------2h3--2---------------------|
B|-----------3------------------------------|
G|-------2-----2----------------------------|
D|-----0---0--------------------------------|
A|------------------------------------------|
E|------------------------------------------|


 Gm
Time, it needs time

To win back your love again
            A
I will be there
            D
I will be there

 Gm
Love, only love
 
Can bring back your love someday
            A
I will be there
            D
I will be there


Primeiro Solo: Gm  Eb7M  D7
               Gm  Eb7M  D7


E|-----------------------------------------------------|
B|-----------------------------------------------------|
G|--------2-3-5~--3p2-3~--2---2h3--2~------------------|
D|-3/5~---------------------5--------------------------|
A|-----------------------------------------------------|
E|-----------------------------------------------------|


E|-----------------------------------------------------|
B|-----------------------------------------------------|
G|----2--3--5--3--5b7----------------------------------|
D|-5---------------------------------------------------|
A|-----------------------------------------------------|
E|-----------------------------------------------------|


E|----------------------------------------13--13b15~---|
B|----------10-11-13~--11p10-11~------11---------------|
G|-10/12~-------------------------12-------------------|
D|-----------------------------------------------------|
A|-----------------------------------------------------|
E|-----------------------------------------------------|


E|-----------------------------------------------------|
B|-13b15r13p11-----11h13~b15~--------------------------|
G|--------------12-------------------------------------|
D|-----------------------------------------------------|
A|-----------------------------------------------------|
E|-----------------------------------------------------|



Segunda Parte:

 Gm
Fight, babe, I'll fight
 
To win back your love again
            A
I will be there
            D
I will be there

 Gm
Love, only love

Can break down the wall someday
            A
I will be there
            D
I will be there


Primeiro Refrão:

G5          Eb5
   If we'd go again
Bb5                     F5
All the way, from the start
G5           Eb5
   I would try to change
      Bb5                   F5
The things that killed our love
G5                 C5
   Your pride has built a wall
      D5
So strong
                    G5
That I can't get through
          Eb5
Is there really no chance
     F5
To start once again?

I'm loving you

(Riff de Passagem)


   Eb5                     F5
E|------------------------------------------|
B|------------------------------------------|
G|------------------------------------------|
D|------------------------------------------|
A|-/6~--5-6--5-6p5-6p5-6~--6/8~--7-8~--7-8~-|
E|------------------------------------------|



Segundo Solo: Gm  Eb7M  D7
              Gm  Eb7M  D7


E|----------------------------------------13--13b15~---|
B|----------10-11-13~--11p10-11~------11---------------|
G|-10/12~-------------------------12-------------------|
D|-----------------------------------------------------|
A|-----------------------------------------------------|
E|-----------------------------------------------------|


E|-----------------------------------------------------|
B|-13b15r13p11-----11h13~b15~--------------------------|
G|--------------12-------------------------------------|
D|-----------------------------------------------------|
A|-----------------------------------------------------|
E|-----------------------------------------------------|



Terceira Parte:

  Gm
Try, baby, try

To trust in my love again
            A
I will be there
            D
I will be there

(Riff da Terceira Parte)


E|-----------------------------------------------------|
B|-----------------------------------------------------|
G|-------------------------9br-------------------------|
D|-----------8b-----------10brp9\5---------------------|
A|------8h10----10~-----------------8--7~--------------|
E|-8h10------------------------------------------------|


 Gm
Love, our love

Just shouldn't be thrown away
            A
I will be there
            D
I will be there


Segundo Refrão:

G5          Eb5
   If we'd go again
Bb5                     F5
All the way, from the start
G5           Eb5
   I would try to change
      Bb5                   F5
The things that killed our love
G5                 C5
   Your pride has built a wall
      D5
So strong
                    G5   ( F5 )
That I can't get through
          Eb5
Is there really no chance
     F5
To start once again?

G5          Eb5
   If we'd go again
Bb5                     F5
All the way, from the start
G5           Eb5
   I would try to change
      Bb5                   F5
The things that killed our love
( G5  F5  G5 )            C5
               Yes, I've hurt 
                  ( D5  C5  D5 )
Your pride, and I know
                    G5
What you've been through
            Eb5
You should give me a chance
      F5
This can't be the end

  H.A  . .

E|-----------------------------------------------------|
B|-----------------------------------------------------|
G|---------------3b------------------------------------|
D|-----------3------5~---------------------------------|
A|-1b--1-3-5---5---------------------------------------|
E|-----------------------------------------------------|


E|-----------------------------------------------------|
B|-13b15r13p12p11-10~----------------------------------|
G|-----------------------------------------------------|
D|-----------------------------------------------------|
A|-----------------------------------------------------|
E|-----------------------------------------------------|


E|-20b22r20p18-20b22-b22~~-----------------------------|
B|-----------------------------------------------------|
G|-----------------------------------------------------|
D|-----------------------------------------------------|
A|-----------------------------------------------------|
E|-----------------------------------------------------|


  H.A   . . . .

E|-----------------------------------------------------|
B|-----------------------------------------------------|
G|------------------3-5b7r5p3--5br~~-------------------|
D|--------------3-5------------------------------------|
A|--------3-4-5----------------------------------------|
E|-1/3--6----------------------------------------------|



Final:

                  G5  Eb5  Bb5  F5
I'm still loving you
                  G5  Eb5  Bb5  F5
I'm still loving you
                  G5  Eb5  Bb5
I'm still loving you
             F5
I need your love
                  G5  Eb5  Bb5
I'm still loving you 
                          F5
(I'm still loving you, baby)

( G5  Eb5  Bb5  F5 )  (2x)

                  G5  Eb5  Bb5
I'm still loving you
             F5
I need your love
                  G5  Eb5  Bb5
I'm still loving you
             F5   G5  Eb5  Bb5  F5
I need your love
                  G5  Eb5  Bb5
I'm still loving you
             F5  G5  Eb5  Bb5
I need your love
             F5  G5  Eb5  Bb5
I need your love
             F5  G5  Eb5  Bb5  F5
I need your love

(Parte 1)


E|-----------------------------------------------------|
B|-18b20~---18b20r18--15----------18-------------------|
G|-----------------------17b19~------17b19r17~---------|
D|-----------------------------------------------------|
A|-----------------------------------------------------|
E|-----------------------------------------------------|


(Parte 2)


E|-----17--18--20--20b22--20b22~r--20-18-20~-----------|
B|-20--------------------------------------------------|
G|-----------------------------------------------------|
D|-----------------------------------------------------|
A|-----------------------------------------------------|
E|-----------------------------------------------------|


(Parte 3)


E|-15--------------------------------------------------|
B|-18b20~--------------16b18r16--16~---b20--18--b20--18|
G|----------12/14--15----------------------------------|
D|-----------------------------------------------------|
A|-----------------------------------------------------|
E|-----------------------------------------------------|


E|-20b22r20p18--20b22r20p18--20b22--b22~~--------------|
B|-----------------------------------------------------|
G|-----------------------------------------------------|
D|-----------------------------------------------------|
A|-----------------------------------------------------|
E|-----------------------------------------------------|


(Parte 4)


E|----15-17-18-17h18p17p15-15--------------------------|
B|-18----------------------18b20~----------------------|
G|-----------------------------------------------------|
D|-----------------------------------------------------|
A|-----------------------------------------------------|
E|-----------------------------------------------------|


E|----15-17-18-17h18p17p15-----------------------------|
B|-16----------------------18-15~----------------------|
G|-----------------------------------------------------|
D|-----------------------------------------------------|
A|-----------------------------------------------------|
E|-----------------------------------------------------|


(Parte 5)


E|-----------------------------------------------------|
B|-18p15-18p15----15-18p15----15-18p15----15-18p15-----|
G|-------------17----------17----------17----------17--|
D|-----------------------------------------------------|
A|-----------------------------------------------------|
E|-----------------------------------------------------|


E|-----------------------------------------------------|
B|-15-18p17----15--18---18---18---18-------------------|
G|----------17-----------------------------------------|
D|-----------------------------------------------------|
A|-----------------------------------------------------|
E|-----------------------------------------------------|


E|-----------------------------------------------------|
B|-18p15----15-18p15----15-18p15----15-18p15-18b20-----|
G|-------17----------17----------17--------------------|
D|-----------------------------------------------------|
A|-----------------------------------------------------|
E|-----------------------------------------------------|


(Parte 6)


E|-20b22~----------------------------------------------|
B|----------15-16-18-15h16p15------15--16--15----------|
G|-----------------------------17--------------17b19~--|
D|-----------------------------------------------------|
A|-----------------------------------------------------|
E|-----------------------------------------------------|


(Parte 7)


E|-----------------------------------------------------|
B|--------------------------------------------18-------|
G|-17p15----15-17p15----15-17p15----15-17b19-----17b19~|
D|-------17----------17----------17--------------------|
A|-----------------------------------------------------|
E|-----------------------------------------------------|


E|-----------------------------------------------------|
B|-----------------------------------------------------|
G|-5...-5p3---3-------------------------------3---3-5p3|
D|----------5---5-4-3-------------------3-4-5---5------|
A|--------------------5-4-3-------3-4-5----------------|
E|--------------------------6-3-6----------------------|


E|--------------------------------------~--------------|
B|-----------------------------------------------------|
G|---3-------------------------------------------------|
D|-5---------------------------------------------------|
A|-----------------------------------------------------|
E|-----------------------------------------------------|


(Parte 8)


E|-15-----------------------------------~--------------|
B|-18b20~----------15--16b18r16--16~---18b20--18--b20--|
G|----------16/17--------------------------------------|
D|-----------------------------------------------------|
A|-----------------------------------------------------|
E|-----------------------------------------------------|


E|--------------------------------------~--------------|
B|-18--------------------------------------------------|
G|-------17--15--14--12----------12/14--12~------------|
D|-----------------------14--15------------------------|
A|-----------------------------------------------------|
E|-----------------------------------------------------|


E|--------------------------------------~--------------|
B|-15h16p15~--15h16p15~--15h16p15~--15h16p15~----------|
G|-----------------------------------------------------|
D|-----------------------------------------------------|
A|-----------------------------------------------------|
E|-----------------------------------------------------|


E|--------------------------------------~--------------|
B|-15h16p15h16p....------------------------------------|
G|-----------------------------------------------------|
D|-----------------------------------------------------|
A|-----------------------------------------------------|
E|-----------------------------------------------------|
  • 1
  • 2
  • 3
  • 4
  • 5
  • 6
  • 7
  • 8
  • 9
  • 10
  • 11
  • 12
    Acordes para:

      0 comentários

        mostrar mais comentários

        Conseguiu tocar?

        61tocaram6ainda não

        Grave um vídeo tocando Still Loving You e mande pra gente!

        00:00 / 00:00
        outros vídeos desta música
        repetirqualidadeautomática
        • automática
        Outro vídeos desta música
          Capítulos
          • Tocando a música
          • Dicas Iniciais / Equipamentos
          • Acordes da Introdução
          • Tocando a Introdução
          • Introdução - Guitarra 1
          • Introdução - Guitarra 2
          • Acordes da Primeira Parte
          • Primeira Parte - Guitarra 1
          • Primeira Parte - Guitarra 2
          • Tocando o Primeiro Solo
          • Primeiro Solo - Parte 1 de 2
          • Primeiro Solo - Parte 2 de 2
          • Dicas 2
          • Acordes do Refrão
          • Tocando Segunda Parte e Primeiro Refrão
          • Ritmo do Refrão
          • Riff de Passagem
          • Tocando o Segundo Solo
          • Segundo Solo
          • Tocando Terceira Parte e Segundo Refrão
          • Riff da Terceira Parte
          • Riffs do Segundo Refrão
          • Tocando o Final
          • Solo Final - Parte 1 de 8
          • Solo Final - Parte 2 de 8
          • Solo Final - Parte 3 de 8
          • Solo Final - Parte 4 de 8
          • Solo Final - Parte 5 de 8
          • Solo Final - Parte 6 de 8
          • Solo Final - Parte 7 de 8
          • Solo Final - Parte 8 de 8
          • Encerramento
          • Ficha Técnica
          00:00 / 00:00
          automática
          • automática
          Acordes para:violão e guitarra
          dificuldadeexibiçõescontribuições
          1 versão de Tab de baixoexibiçõescontribuições
          1 versão de Guitar Proformatodownloadscontribuição
          1 versão de Partiturasformatodownloadscontribuição
          fecharplay/pause subir/descer velocidade
            acordes
            fechar
            OK
            Feedback