Enviar cifraEntrar

You & I

Scorpions

Cifra: Principal
exibições 49.291
Tom: C
(intro) C  E  Am  Dm   C   G


E|------8-8-------12-10-8-5-5------------------------------|
B|--10------12-10----------5----5-8-6-5-----5--------------|
G|9----------------------------5--------7-5----5-4---------|
D|----------------------------7---------------------7-5----|
A|---------------------------------------------------------|
E|---------------------------------------------------------|


C          Am Dm              G
I lose control because of you babe
C          Am Dm                   G
I lose control when you look at me like this
       C                  Am           Dm       G
there's something in your eyes that is saying tonight

          C
I'm not a child anymore.
         Am                   Dm           G
Life has opened the door to a new exciting life
C          Am Dm                     G
I lose control when I'm close to you babe
C          Am Dm                G
I lose control don't look at me like this
       C                  Am            Dm            G
there's something in your eyes, is this love at first sight
       C                            Am
like a flower that grows, life just wants you to know
    Dm             G
all the secrets of life

Dm                           Em
It's all written down in your lifelines
Dm                           G
it's written down inside your heart

C      Am Dm          G
You and I just have a dream
C           Am           Dm
to find our love a place
                   G
where we can hide away

C      Am Dm        G
you and I were just made
C            Am        Dm
to love each other now
              G
forever and a day

Repete a introdução:
C  E  Am  Dm   C   G


E|------8-8-------12-10-8-5-5-------------------------------|
B|--10------12-10----------5-----5-8-6-5-----5--------------|
G|9-----------------------------5--------7-5----5-4---------|
D|----------------------------7---------------------7-5-----|
A|----------------------------------------------------------|
E|----------------------------------------------------------|


C         Am  Dm             G
I lose control because of you babe
C         Am  Dm                G
I lose control when you look at me like this
        C                Am            Dm       G
there's something in your eyes that is saying tonight
       C                          Am
I'm so curious for more just like never before
      Dm       G
in my innocent life
Dm                            Em
It's all written down in your lifelines
Dm                            G
it's written down inside your heart

C      Am Dm          G
You and I just have a dream
C           Am           Dm
to find our love a place
                 G
where we can hide away

C      Am Dm        G
you and I were just made
C            Am        Dm
to love each other now
              G
forever and a day

Am           G      F
Time stands still
                           G
when days of innocence are falling for the night
Am                       G      F
I love you girl I always will
                       G                 F
I swear I'm there for you till the day I die

D     Bm G          A
You and I just have a dream
D           Bm           G
to find our love a place
            A
where we can hide away

D      Bm G       A
you and I were just made
D            Bm        G
to love each other now
              A
forever and a day

(final) D   Bm     G  D   A


E|-------10-10---------14-12-10-7-7--------------------------------|
B|----12--------14-12------------7-----7-10-8-8-----7--------------|
G|11---------------------------------7----------9-7---7-6----------|
D|---------------------------------9-----------------------9-7-----|
A|-----------------------------------------------------------------|
E|-----------------------------------------------------------------|
  • 1
  • 2
  • 3
  • 4
  • 5
  • 6
  • 7
  • 8
  • 9
  • 10
  • 11
  • 12
    Acordes para:
      Colaboração e revisão:
      • jo.lara.7
      • Ranulfo
      • ldominguesm

      0 comentários

        mostrar mais comentários

        Conseguiu tocar?

        11tocaram0ainda não

        Grave um vídeo tocando You & I e mande pra gente!

        00:00 / 00:00
        outros vídeos desta música
        repetirqualidadeautomática
        • automática
        Outro vídeos desta música
          00:00 / 00:00
          automática
          • automática
          Acordes para:violão e guitarra
          dificuldadeexibiçõescontribuições
          fecharplay/pause subir/descer velocidade
            acordes
            fechar
            OK
            Feedback