Cifra Club

Aprenda

Incompleto

Scracho

Cifra: Principal (violão e guitarra)
Tom: C
Intro: C
Riff:
E|-------3--3-----------3--3-----------3-----------3----
B|-----5------5-------3------3-------5---5-------3---3--
G|---5----------5---5----------5---5-------5---3-------3  (2x)
D|-5--------------5--------------5-----------5----------
A|------------------------------------------------------
E|------------------------------------------------------

C
Vejo a vida tão sem graça
C                           F
Quando não te vejo na minha direção,
       Am                  F
Que ilusão não te encontrar

C
Quando estou longe de casa
C                         F
Seu sorriso toma minha imaginação,
           Am           F
Não vejo a hora de voltar

Dm                       F
Pés descalços, rosto ao vento
                     C           G
Mil histórias pra contar, vem pra cá
   Dm                       F
Eu hoje não quero mais nada
      C               C7
Só você, pra me abraçar...

Refrão: (Riff)
      F
Hoje sei o que dizer
                 C      G
O que faltava achei, em você
F                            C
Sorte nossa em encontrar alguém
    G                    C
Pra dizer que é só meu

C
Abre a porta, entra em casa
C                        F
Chega colocando tudo em seu lugar
Am                   F
Liga luz onde era breu

C
Que saudade do seu jeito
C                   F
Deixa o momento se prolongar
Am                      F
Quero morar no abraço seu

Dm                F
Se você quiser o mundo
                 C             G
Eu te ofereço o meu, vem pra cá
Dm                      F
Ter de tudo não diz nada
           C             C9
Sem ter você pra me abraçar

Refrão: (Riff)
      F5
Hoje sei o que dizer
                 C5      G5
O que faltava achei, em você
F5                            C5
Sorte nossa em encontrar alguém
    G5                    F5  F5  E5  D5  A5  G5
Pra dizer que é só meu

Solo: F5  C5

      F
Hoje sei o que dizer
                C           G
O que faltava achei, em você
F                           C
Sorte nossa em encontrar alguém
    G5
Pra dizer...

(Riff)
      F5
Hoje sei o que dizer
                C5          G5
O que faltava achei, em você
F5                          C5
Sorte nossa em encontrar alguém
     G5             F5
Pra dizer que é só meu!

( F5  E5  D5  D5  A5  Bb5 )
Solo:
E|-----------------------------------------------------------------------------------------------------------
B|-----------------------------8------------8b10b8--8~---8p6-8p6----------------------------55----x-8b10b8-8~
G|---------5--5h7-5--------7b9==--7b9b7--5------------------------7-5-7b9--7b9-7-5---5~-7p57---7-------------
D|---5--5h7--------7-7b9b8---------------------------------------------------------7-------------------------
A|5h7--------------------------------------------------------------------------------------------------------
E|-----------------------------------------------------------------------------------------------------------

E|--------------------------------------------
B|-8p6-8p6--x-8b10b8-8-6----------------------
G|-----------------------7b9-7-5-7-5~~~~~~~~~~
D|--------------------------------------------
A|--------------------------------------------
E|--------------------------------------------
Colaboração e revisão:
  • Raul Vitor
  • Lucas Men
60.292 exibições
    • ½ Tom
    • A
    • Bb
    • B
    • C
    • Db
    • D
    • Eb
    • E
    • F
    • F#
    • G
    • Ab
  • Adicionar à lista

    0 comentários

    Mostrar mais comentários

    Conseguiu tocar?

    12 Tocaram 0 Ainda não

    Grave um vídeo tocando Incompleto e mande pra gente!

    00:00 / 00:00
    outros vídeos desta música
    repetir qualidade Automático
    Outros vídeos desta música
    00:00 / 00:00
    Automático

    Cifra Club Pro

    Aproveite o Cifra Club com benefícios exclusivos e sem anúncios
    7 dias grátis
    Cifra Club Pro
    Aproveite o Cifra Club com benefícios exclusivos e sem anúncios
    7 dias grátis
    OK