Cifra Club

A New Tomorrow

Screeching Weasel

Cifra: Principal (violão e guitarra)
tom: C
Submitted By: Craig
EMail: *INTRO/VERSE (PLAYED 6 TIMES TOTAL)
     Pm       Pm
E|--0-0-3-2-
B|--0-1-0-3-
G|--1-2-0-2-
D|--2-3-0-0-
A|--2-0-2------
E|--0--------3-------

CHORUS
E|--0-3-2-0-0-3-2-0--
B|--0-0-3-1-0-0-3-1--
G|--1-0-2-0-1-0-2-0--
D|--2-0-0-2-2-0-0-2--
A|--2-2-------3---2----2------3--
E|--0-3------------0----3---------

2ND VERSE (REPEAT 4 TIMES)
     Pm       Pm
E|--0-0-3-2--
B|--0-1-0-3--
G|--1-0-0-2--
D|--2-2-0-0--
A|--2-3-2------
E|--0--------3-----

GHORUS
E|--0-3-2-0-0-3-2-0--
B|--0-0-3-1-0-0-3-1--
G|--1-0-2-0-1-0-2-0--
D|--2-0-0-2-2-0-0-2--
A|--2-2-------3---2----2------3--
E|--0-3------------0----3---------

REPEAT UNTIL END W/ LEAD RIFFS
     Pm       Pm
E|--0-0-3-2--
B|--0-1-0-3--
G|--1-0-0-2--
D|--2-2-0-0--
A|--2-3-2------
E|--0--------3-----

LEAD RIFF A (PLAYED 4 TIMES TOTAL)
E|--0---3-5-3--2-----2------3-5-3--2-----2-
B|----------------3-----0-------------3--------
G|---------------------------------------------
D|---------------------------------------------
A|---------------------------------------------
E|---------------------------------------------

LEAD RIFF B (PLAY UNTIL SONG FADES OUT)
E|--7-7-7-7-7-7-7-7-5---5---------7-8-7-5---5---
B|--------------------8----8-8--8---------8-----------
G|------------------------------------------------------
D|------------------------------------------------------
A|-----------------------------------------------------
E|-----------------------------------------------------
00:00 / 00:00
Outros vídeos desta música
Repetir
Outros vídeos desta música
Compositor não encontrado.
232 exibições
    • ½ Tom
    • A
    • Bb
    • B
    • C
    • Db
    • D
    • Eb
    • E
    • F
    • F#
    • G
    • Ab
  • Adicionar à lista

    0 comentários

    Ver todos os comentários

    Conseguiu tocar?

    0 Tocaram 0 Ainda não

    Grave um vídeo tocando A New Tomorrow e nos envie!

    Entre para oCifra Club PRO

    Tenha acesso a benefícios exclusivos no App e no Site

    • Chega de anúncios

    • Prioridade de compra em lançamentos

    • Mais recursos no app do Afinador

    • Atendimento Prioritário

    • Descontos nos produtos Cifra Club

    • Ajude a produzir mais conteúdo

    00:00 / 00:00

    Cifra Club Pro

    Aproveite o Cifra Club com benefícios exclusivos e sem anúncios
    Cifra Club Pro
    Aproveite o Cifra Club com benefícios exclusivos e sem anúncios
    OK