Cifra Club

I Was A Highschool Psychopath

Screeching Weasel

Cifra: Principal (violão e guitarra)
tom: G
By: Ramiro Chamorro

Intro/chorus  - just repeat as many times as needed
   ....I'm a highschool, psycopath....i need therapy
e|---------------------------------------------
B|---------------------------------------------
G|---9--9---------7-------------------------99-
D|---9--9--**--9--7--7-77---5--5------7--9--99-
A|---7--7------9--5--7-77---5--5--**--7--9--77-
E|-------------7-----5-55---3--3------5--7-----

       **=Palm mute-smother thing
        
>>>
strumming pattern: D= down, u = up.  Each D U D after the first D 
(which counts as 1) is 1 time.  You do 7 D-U-D's before the  two strokes after 
the >>>>.  the very first time when this strumming pattern is introduced, its 
6 DUD's.  i hope it makes sense.. and do as many times as needed.

Bridge...     -.... Oooh, ooh, ohh, ohh ooooOOO...
Main thing, again, simple.  its the bass doing the cool riff.
e|------------------------------------------
B|------------------------------------------
G|--------9--------------9---7-----7--------
D|--------9---9---7------9---7-7-9-7------7-
A|--------7---9---7------7---5-7-9-5------7-
E|------------7---5------------5-7--------5-

           D-U-D X 1 >>   *  >> DUD X 1>>                DUD X 1 >>
*I forget how many times, but the same DUD thing. X 6 i think, then go to part 
after *  
  after X amount of times of pattern after the *, just stop, then after a second, 
go to main guitar riff.  Thats basically it.  Just play along with the tape and 
connect all the parts together. A very simple but good song, enjoy

-----------------------------------------------------------------------
00:00 / 00:00
Outros vídeos desta música
Repetir
Outros vídeos desta música
Compositor não encontrado.
158 exibições
    • ½ Tom
    • A
    • Bb
    • B
    • C
    • Db
    • D
    • Eb
    • E
    • F
    • F#
    • G
    • Ab
  • Adicionar à lista

    0 comentários

    Ver todos os comentários

    Conseguiu tocar?

    0 Tocaram 0 Ainda não

    Grave um vídeo tocando I Was A Highschool Psychopath e nos envie!

    Entre para oCifra Club PRO

    Tenha acesso a benefícios exclusivos no App e no Site

    • Chega de anúncios

    • Prioridade de compra em lançamentos

    • Mais recursos no app do Afinador

    • Atendimento Prioritário

    • Descontos nos produtos Cifra Club

    • Ajude a produzir mais conteúdo

    00:00 / 00:00

    Cifra Club Pro

    Aproveite o Cifra Club com benefícios exclusivos e sem anúncios
    Cifra Club Pro
    Aproveite o Cifra Club com benefícios exclusivos e sem anúncios
    OK