Cifra Club

Aprenda

My Only One

Sebastián Yatra

Cifra: Principal (violão e guitarra)
tom: F# (forma dos acordes no tom de F) Capotraste na 1ª casa
[Intro]

e|8------8--------------------------------------------------------|
B|--10-----10---5-6--5-6------------------------------------------|
G|-------------------------5--3-2---------------------------------|
D|--------------------------------2-3--2-3--2-3-------------------|
A|8--8---8--8---5-5--5-5---3--1-1---------------------------------|
E|--------------------------------1-1--1-1--1-1-------------------|

[Verso 1]

     F                                      Dm
I remember when I met you, I didn't want to fall
                          Bb                C
I felt my hands were shaking 'cause you looked so beautiful

E|---3/5-3--3-------------------------|
B|------------6--5-6------------------|
G|-------------------5----------------|
D|------------------------------------|
A|------------------------------------|
E|------------------------------------|

[Verso 2]

     F                                             Dm
I remember when you kissed me, I knew you were the one
                       Bb               C
And oh my hands were shaking when you played my favorite song

E|--3/5-3--1/3-1-----------------|
B|---------------5-6-6-----------|
G|-------------------------------|
D|-------------------------------|
A|-------------------------------|
E|-------------------------------|

[Pré-Refrão]

             Dm
I don't know why
           Bb                    F
But every time I look into your eyes
         C                         Dm              Bb
I see a thousand falling shooting stars and yes I love you
                     F                        C
I can't believe that every night you're by my side

[Refrão]

              F                   C
Promise I'll stay here 'till the morning
             Dm              Bb
And pick you up when you're falling
                    F                      C
When the rain gets rough, when you've had enough
                              Dm                       Bb
I'll just sweep you off your feet and fix you with my love

        F     C
My only one
        Dm    Bb 
My only one

[Verso 3]

F
Tell me how you do it
              C 
I can barely breathe with the smile you get
                    Dm
You get the best of me 
                                     Bb
And all I really want is to give you all of me

E|-------------------|
B|-------------------|
G|--5-3--------------|
D|-------------------|
A|-------------------|
E|-------------------|

[Verso 4]

F                                       C
Tell me how you do it, how you bring me back
                                                 Dm
You bring me back to life then make my heartbeat stop

E|--3-5--------------|
B|-------------------|
G|-------------------|
D|-------------------|
A|-------------------|
E|-------------------|

        Bb
I can't take it

[Pré-Refrão]

             Dm
I don't know why
           Bb                    F
But every time I look into your eyes
         C                         Dm              Bb
I see a thousand falling shooting stars and yes I love you
                      F                        C
I can't believe that every night you're by my side

[Refrão]

          F             C
Voy a cuidarte por las noches
       Dm           Bb
Voy a amarte sin reproches
               F               C
Te voy a extrañar en la tempestad
                        Dm               Bb
Y aunque existan mil razones para renunciar
              F                   C
Promise I'll stay here 'till the morning
             Dm             Bb
And pick you up when you're falling
                    F                      C
When the rain gets rough, when you've had enough
                              Dm                       Bb
I'll just sweep you off your feet and fix you with my love

        F                   C
My only one (there's no one else)
        Dm                  Bb
My only one (there's no one else)
                F
You are my only one
                         C
It's just there's no one else, ouh, uoh
        Dm     Bb
My only one
        (F)
My only
Composição de Sebastian Yatra
Colaboração e revisão:
  • Victor Hugo
17.216 exibições
    • ½ Tom
    • A
    • Bb
    • B
    • C
    • Db
    • D
    • Eb
    • E
    • F
    • F#
    • G
    • Ab
  • Adicionar à lista

    0 comentários

    Ver todos os comentários

    Conseguiu tocar?

    4 Tocaram 4 Ainda não

    Grave um vídeo tocando My Only One e nos envie!

    00:00 / 00:00
    outros vídeos desta música
    repetir qualidade Automático
    Outros vídeos desta música
    00:00 / 00:00
    Automático

    Cifra Club Pro

    Aproveite o Cifra Club com benefícios exclusivos e sem anúncios
    Cifra Club Pro
    Aproveite o Cifra Club com benefícios exclusivos e sem anúncios
    OK