Cifra Club

Aprenda

Rosa de Hiroshima

Secos & Molhados

Cifra: Versão 2 (violão e guitarra)
Tom: D
Intro:
     D           D9  G       Gm        A
E|--2-----2-----0---3-----3-3---5-3-|                Dedilhado padrão: P
B|--3---3-----3---2-3---3---3-------|                                  i i     i
G|--2-2-----2-------4-4-----3-3-----| (Repete - 4x)                    m   m     m
D|--0-------------------------------|                                  a     a     a
A|----------------------------------|
E|------------------3-------3-------|

              G
Pensem nas crianças
 Gm        D     D9 G Gm  A
Mudas telepáticas
              G
Pensem nas meninas
 Gm       D   D4 D
Cegas inexatas
              C
Pensem nas mulheres
           Bm7    G/Bb  A
Rotas alteradas
              G
Pensem nas feridas
 Gm         D     D9 G Gm  A
Como rosas cálidas
                   G
Mas, oh, não se esqueçam
    Gm      D  D9 G Gm  A
Da rosa da rosa
                 G
Da rosa de Hiroshima
   Gm         D   D4 D
A rosa hereditária
              C
A rosa radioativa
              Bm7   G/Bb  A
Estúpida e inválida
               G
A rosa com cirrose
  Gm          D    D9 G Gm  A
A anti-rosa atômica
                 G
Sem cor, sem perfume
     Gm        D  D4 D
Sem rosa, sem nada
TABLATURA:

Intro:
     D           D9  G       Gm                         Gm (na 4ª vez)
E|--2-----2-----0---3-----3-3---5-3--|               |-3-----3--|
B|--3---3-----3---2-3---3---3--------|               |-3---3----|
G|--2-2-----2-------4-4-----3-3------|(Repete - 4x)  |-3-3------|
D|--0--------------------------------|               |----------|
A|-----------------------------------|               |----------|
E|------------------3-------3--------|               |-3--------|

           Pensem... crianças    Mudas telepáticas
     A                   G         Gm       D           D9  G       Gm
E|--0-----0-----0-------3-----3---3-----3--2-----2-----0---3-----3-3-----3--|
B|--2---2-----2---------3---3-----3---3----3---3-----3---2-3---3---3---3----|
G|--2-2-----2-----------4-4-------3-3------2-2-----2-------4-4-----3-3------|
D|-----------------------------------------0--------------------------------|
A|--0-----------------------------------------------------------------------|
E|----------------------3---------3------------------------3-------3--------|

           Pensem... meninas     Cegas inexatas                                Pensem...
     A                   G         Gm      D              D4             D
E|--0-----0-----0-------3-----3---3-----3-2-----2-----2--3-----3-----3--2-----2-----2--|
B|--2---2-----2---------3---3-----3---3---3---3-----3----3---3-----3----3---3-----3----|
G|--2-2-----2-----------4-4-------3-3-----2-2-----2------2-2-----2------2-2-----2------|
D|----------------------------------------0--------------0--------------0--------------|
A|--0----------------------------------------------------------------------------------|
E|----------------------3---------3----------------------------------------------------|

mulheres   Rotas alteradas                                  Pensem...
     C                 Bm7             G/Bb            A
E|------0-3-----0-----------0-----0---------0-----0---------0-----0--|
B|----4-------1-----------3-----3---------3-----3---------2-----2----|
G|----------0-----------2-----2---------3-----3---------2-----2------|
D|-------------------------------------------------------------------|
A|--3-----------------2-------------2-1-------------1-0--------------|
E|-------------------------------------------------------------------|

 feridas     Como rosas cálidas
     G         Gm        D           D9  G       Gm
E|--3-----3---3-----3---2-----2-----0---3-----3-3---5-3--|
B|--3---3-----3---3-----3---3-----3---2-3---3---3--------|
G|--4-4-------3-3-------2-2-----2-------4-4-----3-3------|
D|----------------------0--------------------------------|
A|-------------------------------------------------------|
E|--3---------3-------------------------3-------3--------|

           Mas... se esqueçam Da rosa da rosa
     A                   G         Gm      D           D9  G       Gm
E|--0-----0-----0-------3-----3---3-----3-2-----2-----0---3-----3-3-----3--|
B|--2---2-----2---------3---3-----3---3---3---3-----3---2-3---3---3---3----|
G|--2-2-----2-----------4-4-------3-3-----2-2-----2-------4-4-----3-3------|
D|----------------------------------------0--------------------------------|
A|--0----------------------------------------------------------------------|
E|----------------------3---------3-----------------------3-------3--------|

          Da rosa de Hiroshima    A rosa hereditária                                  A rosa...
     A                      G         Gm         D              D4             D
E|--0-----0-----0----------3-----3---3-----3----2-----2-----2--3-----3-----3--2-----2-----2--|
B|--2---2-----2------------3---3-----3---3------3---3-----3----3---3-----3----3---3-----3----|
G|--2-2-----2--------------4-4-------3-3--------2-2-----2------2-2-----2------2-2-----2------|
D|----------------------------------------------0--------------0--------------0--------------|
A|--0----------------------------------------------------------------------------------------|
E|-------------------------3---------3-------------------------------------------------------|

radioativa    Estúpida e inválida                                  A rosa...
        C                    Bm7             G/Bb            A
E|---------0-3-----0--------------0-----0---------0-----0---------0-----0--|
B|-------4-------1--------------3-----3---------3-----3---------2-----2----|
G|-------------0--------------2-----2---------3-----3---------2-----2------|
D|-------------------------------------------------------------------------|
A|-----3--------------------2-------------2-1-------------1-0--------------|
E|-------------------------------------------------------------------------|

cirrose   A anti-rosa atômica
     G         Gm        D           D9  G       Gm
E|--3-----3---3-----3---2-----2-----0---3-----3-3-----3--|
B|--3---3-----3---3-----3---3-----3---2-3---3---3---3----|
G|--4-4-------3-3-------2-2-----2-------4-4-----3-3------|
D|----------------------0--------------------------------|
A|-------------------------------------------------------|
E|--3---------3-------------------------3-------3--------|

           Sem cor... perfume Sem rosa, sem nada
     A                     G         Gm       D              D4               D
E|--0-----0-----0---------3-----3---3-----3--2-----2-----2--3-----3-3-----3--2--|
B|--2---2-----2-----------3---3-----3---3----3---3-----3----3---3---3---3----3--|
G|--2-2-----2-------------4-4-------3-3------2-2-----2------2-2-----2-2------2--|
D|-------------------------------------------0--------------0----------------0--|
A|--0---------------------------------------------------------------------------|
E|------------------------3---------3-------------------------------------------|
Composição de Gerson Conrad / Vinícius de Moraes
Colaboração e revisão:
  • Araújo
2.444 exibições
    • ½ Tom
    • A
    • Bb
    • B
    • C
    • Db
    • D
    • Eb
    • E
    • F
    • F#
    • G
    • Ab
  • Adicionar à lista

    0 comentários

    Mostrar mais comentários

    Conseguiu tocar?

    1 Tocaram 0 Ainda não

    Grave um vídeo tocando Rosa de Hiroshima e mande pra gente!

    00:00 / 00:00
    outros vídeos desta música
    repetir qualidade Automático
    Outros vídeos desta música
    00:00 / 00:00
    Automático
    OK