Cifra Club

Save Today

Seether

Cifra: Principal (violão e guitarra)
tom: E
Intro 2x: E5 C#5 C#m

Batida
         E5                                    C#5   C#m C#5   C#m  C#5    C#m C#5   C#m
E|------------------------------------------|-------4----------4----------4----------4--|
B|------------------------------------------|-------5----------5----------5----------5--|
G|------------------------------------------|-------6----------6----------6----------6--|
D|-------2----------2----------2----------2-|--6--6-6--6--6--6-6--6--6--6-6--6--6--6-6--|
A|-------2----------2----------2----------2-|--4--4-4--4--4--4-4--4--4--4-4--4--4--4-4--|
E|--0--0-0--0--0--0-0--0--0--0-0--0--0--0-0-|-------------------------------------------|

Teclado
E|--7----------0----------7--------------------|
B|----9--7--9------7--9------9--7--9-----7--9--|
G|------------------------------------6--------|
D|---------------------------------------------|
A|---------------------------------------------|
E|---------------------------------------------|

      E5
Well fortune favors not the young
                             C#5 C#m
Spoken words in songs unsung
   E5
I never learn from my mistakes
                                   C#5 C#m
I guess I don't have what it takes

            E5
I wish that I was strong
                       C#5 C#m
That I could walk away
          E5
All this time I've lost
                 C#5 C#m
I feel the cost we paid

    A5(9)                                  G#m
So save today the secrets that you prayed for
                                       A5(9)
And wait 'cause we deserve it so much more
                                       G#m
So save the secrets that you prayed for
Awake, I'll see you on the other side

E5 C#5 C#m

   E5
A tortured soul have I become
                             C#5 C#m
Keeps me safe and leaves me numb
       E5
'Cause in this dream I'm wide awake
                             C#5 C#m
The one I love I did forsake

            E5
I wish that I was wrong
                       C#5 C#m
That you'd come home again
          E5
All this time I've lost
                  C#5 C#m
I'll never find again


    A5(9)                                  G#m
So save today the secrets that you prayed for
                                       A5(9)
And wait 'cause we deserve it so much more
                                       G#m
So save the secrets that you prayed for
Awake, I'll see you on the other side

E|----------------------------------------------------------------------|
B|----------------------------------------------------------------------|
G|--6-6-6-6-6-6-6/8-8-8-8-8-8-8/10-10-10-10-10-10-10/11-11-11-11/13-13--|
D|----------------------------------------------------------------------|
A|--4-4-4-4-4-4-4/6-6-6-6-6-6-6/8--8--8--8--8--8---8/9--9--9--9/11--11--|
E|----------------------------------------------------------------------|

Say you can help me now

Guitarra acompanha com mesmas notas mas em power chord

    A5(9)                                  G#m
So save today the secrets that you prayed for
                                       A5(9)
And wait 'cause we deserve it so much more
                                       G#m
So save the secrets that you prayed for
Awake, I'll see you on the other side

    A5(9)                         G#m                                  A5(9)
E|-----------------------------------------------------------------|
B|-----------------------------------------------------------------|
G|-----------------------------------------------------------------|
D|---------------------------------------------------------------2x|
A|-------7--4---7--4---7--4----7-----7--4----7--4----7--4---7------|
E|------------5------5------5-----4-------4-------4-------4----5---|
00:00 / 00:00
Outros vídeos desta música
Repetir
Outros vídeos desta música
Composição de Shaun Morgan Welgemoed
Colaboração e revisão:
  • Mateus
10.026 exibições
  • Simplificar cifra
    • ½ Tom
    • A
    • Bb
    • B
    • C
    • Db
    • D
    • Eb
    • E
    • F
    • F#
    • G
    • Ab
  • Adicionar à lista

    0 comentários

    Ver todos os comentários

    Entre para oCifra Club PRO

    Tenha acesso a benefícios exclusivos no App e no Site

    • Chega de anúncios

    • Prioridade de compra em lançamentos

    • Mais recursos no app do Afinador

    • Atendimento Prioritário

    • Descontos nos produtos Cifra Club

    • Ajude a produzir mais conteúdo

    00:00 / 00:00

    Cifra Club Pro

    Aproveite o Cifra Club com benefícios exclusivos e sem anúncios
    Cifra Club Pro
    Aproveite o Cifra Club com benefícios exclusivos e sem anúncios
    OK