Cifra Club

Attitude

Sepultura

Cifra: Principal
exibições 10.917
Tom: B



Intro: berinbal |Gb|4-3333-3-4-3333| |3-4444-3-34333|





Intro:                    
Db|----------------------------------------------------------|
Ab|----------------------------------------------------------|
E |-2222222222222-1111111111111-2222222222222-11111111111111-|  
B |----------------------------------------------------------|
Gb|----------------------------------------------------------|
B |----------------------------------------------------------|

Db|----------------------------------------------------------|
Ab|----------------------------------------------------------|
E |-2222222222222/5555555555555\2222222222222/55555555555555-|  
B |----------------------------------------------------------|
Gb|----------------------------------------------------------|
B |----------------------------------------------------------|

Db|----------------------------|
Ab|----------------------------|
E |-13~1313131313~-1313131313~~|  
B |----------------------------|
Gb|-11~1111111111~11111111111~~|
B |----------------------------|

    . .  . .  . .  . .      . .  . .  . .  . .  .
Db|-----------------------|-----------------------|
Ab|-----------------------|-----------------------|
E |-----------------------|-----------------------|  
B |-----------------------|-----------------------|    2X
Gb|-1-0--0-0--1-0--0-0----|-1-0--0-0--1-0--0-0--0-|
B |-1-0--0-0--1-0--0-0----|-1-0--0-0--1-0--0-0--0-|



Db|----------------|----------------| 
Ab|----------------|----------------| 
E |----------------|----------------|  4X
B |----------------|----------------|   
Gb|-1/3--3-3/4--6--|-1/3--3-3/4--6--|
B |-1/3--3-3/4--6--|-1/3--3-3/4--6--|



   
Db|---------------------------------| 
Ab|---------------------------------| 
E |---------------------------------|  
B |---------------------------------|   
Gb|---------------------------------|
B |-1H3-3-3-1H3-3-3-1H3-3-3-1H3-3-3-|



Db|----------------|----------------| 
Ab|----------------|----------------| 
E |----------------|----------------|  4X
B |----------------|----------------|   
Gb|-1/3--3-3/4--6--|-1/3--3-3/4--6--|
B |-1/3--3-3/4--6--|-1/3--3-3/4--6--|



Db|---------------------------------| 
Ab|---------------------------------| 
E |---------------------------------|  
B |---------------------------------|   
Gb|---------------------------------|
B |-1H3-3-3-1H3-3-3-1H3-3-3-1H3-3-3-|



Db|----------------|----------------| 
Ab|----------------|----------------| 
E |----------------|----------------|  4X
B |----------------|----------------|   
Gb|-1/3--3-3/4--6--|-1/3--3-3/4--6--|
B |-1/3--3-3/4--6--|-1/3--3-3/4--6--|



Db|---------------------------------| 
Ab|---------------------------------| 
E |---------------------------------|  
B |---------------------------------|   
Gb|---------------------------------|
B |-1H3-3-3-1H3-3-3-1H3-3-3-1H3-3-3-|



Db|---------------|
Ab|---------------| 
E |---------------|   2X
B |---------------|   
Gb|-3-------------|
B |-3-------------|
   CAN´T YOU TAKE IT? CAN´T YOU TAKE IT?
 
 


Db|-----------------------------------------|
Ab|-----------------------------------------| 
E |-----------------------------------------|  
B |-----------------------------------------|   
Gb|-----22----22--------22----22--------22--|
B |-3333--3333--33333333--3333--33333333----|



    . .   .     . . . . . . . .
Db|-----------------------------|
Ab|-----------------------------| 
E |-----------------------------|    4X
B |-----------------------------|   
Gb|-0-0-6-0-6-6-0-0-0-0-0-0-0-0-|
B |-0-0-6-0-6-6-0-0-0-0-0-0-0-0-|
    

  Solo

Db|---------------|---------------|--------------|
Ab|---------------|---------------|--------------|
E |-131313131313\\|-777777777777//|131313131313//|
B |---------------|-777777777777--|--------------|
Gb|-111111111111\\|-555555555555//|111111111111//|
B |---------------|---------------|--------------|

Db|---------------|---------------|--------------|
Ab|---------------|---------------|--------------|
E |-181818181818\\|-131313131313//|191919191919\\|
B |---------------|---------------|--------------|
Gb|-161616161616\\|-111111111111//|171717171717\\|
B |---------------|---------------|--------------|

Db|----------------------------|
Ab|----------------------------|
E |-13~1313131313~-1313131313~~|  
B |----------------------------|
Gb|-11~1111111111~11111111111~~|
B |----------------------------|



    . .   .     . . . . . . . .
Db|-----------------------------|
Ab|-----------------------------| 
E |-----------------------------|    4X
B |-----------------------------|   
Gb|-0-0-6-0-6-6-0-0-0-0-0-0-0-0-|
B |-0-0-6-0-6-6-0-0-0-0-0-0-0-0-|
    

Db|---------------|
Ab|---------------| 
E |---------------|   2X
B |---------------|   
Gb|-3-------------|
B |-3-------------|
    I WON´T TAKE IT, I WON´T TAKE IT

Db|---------------------------------| 
Ab|---------------------------------| 
E |---------------------------------|  
B |---------------------------------|   
Gb|---------------------------------|
B |-1H3-3-3-1H3-3-3-1H3-3-3-1H3-3-3-|



  End Part
    . .  . .  . .  . .     
Db|-----------------------|
Ab|-----------------------|
E |-----------------------|
B |-----------------------|
Gb|-1-0--0-0--1-0--0-0----|
B |-1-0--0-0--1-0--0-0----|




_______________________________________________




 ..  - palm mute          /  - slide up to
 \  - slide down to      ~  - vibrato
 h  - hammer on          b  - bend
 p  - pull off      
Acordes para:
    Composição: Max Cavalera / SepulturaColaboração e revisão:
    • Diego Mota

    0 comentários

      mostrar mais comentários

      Conseguiu tocar?

      2tocaram0ainda não

      Grave um vídeo tocando Attitude e mande pra gente!

      00:00 / 00:00
      outros vídeos desta música
      repetirqualidadeautomática
      Outro vídeos desta música
        00:00 / 00:00
        automática
        OK