Cifra Club

Choke

Sepultura

Cifra: Principal
exibições 2.638
Tom: B
Afinação: Bb            



Intro:                    
Db|----------------------------------------|
Ab|----------------------------------------|
E |----------------------------------------|  4X
B |----------------------------------------|
Gb|----------------------------------------|
B |-10-0-10-0-10-0-10-0-10-0-10-0-10-0-10~~|

Intro Drums                    
Db|----------------------------------------|
Ab|----------------------------------------|
E |----------------------------------------|  4X
B |----------------------------------------|
Gb|----------------------------------------|
B |-10-0-10-0-10-0-10-0-10-0-10-0-10-0-10~~|

Intro Bass                    
Db|----------------------------------------|
Ab|----------------------------------------|
E |----------------------------------------|  4X
B |----------------------------------------|
Gb|----------------------------------------|
B |-10-0-10-0-10-0-10-0-10-0-10-0-10-0-10~~|

  Riff 1
Db|------------------|
Ab|------------------|
E |------------5-----|  5X
B |------------x-----|
Gb|------------3-----|
B |-0--4~~6~~0-------|
   

  Riff 2 /Intro Derric
Db|------------------|
Ab|------------------|
E |------------------|  4X
B |------------------|
Gb|-0-----0-----0----|
B |-0--4~~0--4~~0-4--|

  Chorus
Db|------------------------------------------|
Ab|------------------------------------------|
E |------------------------------------------|  4X
B |------------------------------------------|
Gb|-0--4--6-6-6-6--6-6-6-6--6-6-6-6--6-6-6-6-|
B |-0--4--6-6-6-6--6-6-6-6--6-6-6-6--6-6-6-6-|
                    Choke    Choke    Choke 

  Riff 3
Db|----------------|----------------|----------------|----------------|
Ab|----------------|----------------|----------------|----------------|
E |----------------|----------------|----------------|-----------5----|
B |----------------|----------------|----------------|-----------X----|
Gb|-0--4--6--0-4-0-|-0--4--6--0-4-0-|-0--4--6--0-4-0-|-----------3----|
B |-0--4--6--0-4-0-|-0--4--6--0-4-0-|-0--4--6--0-4-0-|0--4~~6~~0------|

  Riff 2 /Derric
Db|------------------|
Ab|------------------|
E |------------------|  4X
B |------------------|
Gb|-0-----0-----0----|
B |-0--4~~0--4~~0-4--|

  Chorus
Db|------------------------------------------|
Ab|------------------------------------------|
E |------------------------------------------|  4X
B |------------------------------------------|
Gb|-0--4--6-6-6-6--6-6-6-6--6-6-6-6--6-6-6-6-|
B |-0--4--6-6-6-6--6-6-6-6--6-6-6-6--6-6-6-6-|
                    Choke    Choke    Choke 

Db|-----|
Ab|-----|
E |-----|  
B |-----|
Gb|-0---|
B |-0---|

  Solo (1:29)
Db|--------------------------------------|
Ab|-10101010-9-9-9-9-12121212-13-13-13-13|
E |--------------------------------------|  10X
B |-7-7-7-7--6-6-6-6-9-9-9-9--10-10-10-10|
Gb|--------------------------------------|
B |--------------------------------------|

  Riff 1
Db|------------------|
Ab|------------------|
E |------------5-----|  
B |------------x-----|
Gb|------------3-----|
B |-0--4~~6~~0-------|
 

  Riff 2 /Derric
Db|------------------|
Ab|------------------|
E |------------------|  4X
B |------------------|
Gb|-0-----0-----0----|
B |-0--4~~0--4~~0-4--|
  
  Chorus
Db|---------------|---------|---------|---------|
Ab|---------------|---------|---------|---------|
E |---------------|---------|---------|---------|  3X
B |---------------|---------|---------|---------|
Gb|-0--4--6-6-6-6-|-6-6-6-6-|-6-6-6-6-|-6-6-6-6-|
B |-0--4--6-6-6-6-|-6-6-6-6-|-6-6-6-6-|-6-6-6-6-|
                    Choke    Choke    Choke 

  Riff 3
Db|----------------|----------------|----------------|----------------|
Ab|----------------|----------------|----------------|----------------|
E |----------------|----------------|----------------|----------------|
B |----------------|----------------|----------------|----------------|
Gb|-0--4--6--0-4-0-|-0--4--6--0-4-0-|-0--4--6--0-4-0-|-0--4--6--0-4-0-|
B |-0--4--6--0-4-0-|-0--4--6--0-4-0-|-0--4--6--0-4-0-|-0--4--6--0-4-0-|
                                   Choke               Choke 

  End Solo
Db|-13/15~15~15~15~13/15~15~13/15-15-|       |161616161\1010-16161616\10--|
Ab|----------------------------------|       |----------------------------|   
E |-10/12~12~12~12~10/12~12~10/12-12-|  4X   |----------------------------|   
B |----------------------------------|       |----------------------------|   
Gb|----------------------------------|       |----------------------------|   
B |----------------------------------|       |----------------------------|   

  End Part
Db|----------------|----------------|----------------|----------------|
Ab|----------------|----------------|----------------|----------------|
E |----------------|----------------|----------------|----------------|  
B |----------------|----------------|----------------|----------------|
Gb|----------------|----------------|----------------|----------------|
B |-0--4~~6~~0-4-0-|-0--4~~6~~0-4-0-|-0--4~~6~~0-4-0-|-0--4~~6~~0-0-4-|
Acordes para:

    0 comentários

      mostrar mais comentários

      Conseguiu tocar?

      0tocaram0ainda não

      Grave um vídeo tocando Choke e mande pra gente!

      00:00 / 00:00
      outros vídeos desta música
      repetirqualidadeautomática
      Outro vídeos desta música
        00:00 / 00:00
        automática
        OK