Cifra Club

Couro de Boi

Sérgio Reis

Cifra: Principal (violão e guitarra)
exibições 277.804
Tom: E
[Intro] A  E  B7  E

E|-4-5-7-9--9--9--|-7-5-5-5-9--7-7-7-|-5-4-4-4-7-5-5-5-|-4-2-2-2-5-4--|
B|-5-7-9-10-10-10-|-9-7-7-7-10-9-9-9-|-7-5-5-5-9-7-7-7-|-5-4-4-4-7-5--|
G|------------------------------------------------------------------|
D|------------------------------------------------------------------|
A|------------------------------------------------------------------|
E|------------------------------------------------------------------|

 E                 B7                        E
Para o senhor se mudar, meu pai eu vim lhe pedir
E                   B7                    E    E7
Hoje aqui da minha casa o senhor tem que sair

A                       E
Leve este couro de boi que eu acabei de curtir
B7                                          E
Pra lhe servir de coberta aonde o senhor dormir

E                B7                     E
O pobre velho, calado, pegou o couro e saiu
E                 B7                     E      E7
Seu neto de oito anos que aquela cena assistiu
A                     E
Correu atrás do avô, seu paletó sacudiu
B7                                   E
Metade daquele couro, chorando ele pediu

E                B7                         E
O velhinho, comovido, pra não ver o neto chorando
E                  B7                      E    E7
Partiu o couro no meio e pro netinho foi dando
A                         E
O menino chegou em casa, seu pai foi lhe perguntando
B7                                             E
Pra quê você quer este couro que seu avô ia levando

E                  B7                 E
Disse o menino ao pai: um dia vou me casar
E                    B7                 E   E7
O senhor vai ficar velho e comigo vem morar
A                      E
Pode ser que aconteça de nós não se combinar
B7                                       E
Essa metade do couro vou dar pro senhor levar

[Solo]

E|-4-5-7-9--9--9--|-7-5-5-5-9--7-7-7--5-4-4-4-7-5-5-5--4-2-2-2-5-4--|
B|-5-7-9-10-10-10-|-9-7-7-7-10-9-9-9--7-5-5-5-9-7-7-7--5-4-4-4-7-5--|
G|------------------------------------------------------------------|
D|------------------------------------------------------------------|
A|------------------------------------------------------------------|
E|------------------------------------------------------------------|
Acordes para:

    0 comentários

      mostrar mais comentários

      Conseguiu tocar?

      17tocaram0ainda não

      Grave um vídeo tocando Couro de Boi e mande pra gente!

      00:00 / 00:00
      outros vídeos desta música
      repetirqualidadeAutomático
      Outro vídeos desta música
        00:00 / 00:00
        OK