Cifra Club

Aprenda

Jerusalém

Sérgio SAAS

Cifra: Principal (violão e guitarra)
tom: F
       Dm7            C9       Bb9                      Dm7
E|-----------------------------------------------------------------------
B|------------------8-----13-10~~~----8---10-12-13-18-15/13-13-13h15-15~~
G|---7~~---7h9h10p9---7~~-----------7---7--------------------------------
D|-------7---------------------------------------------------------------
A|-----------------------------------------------------------------------
E|-----------------------------------------------------------------------

           C9                       Bb9                      Bb9
E|---------------------------------------------------------------
B|---20-17/13-13-13-13h15-10~~~-----------------10---------------
G|------------------------------9-9h10-10-10-10----10-10-9-9h10p9
D|---------------------------------------------------------------
A|---------------------------------------------------------------
E|---------------------------------------------------------------

E|---------------------------|
B|---------------------------|
G|---------------------------|
D|---12-10-------------------|
A|---------13-12-10----------|
E|------------------13-12-10-|


Dm7                                    C              Bb9
Ah, se eu soubesse mais que seu amor seria assim tão belo
  Dm7                    C              Bb9
A ponto de morrer numa cruz por mim pecador,
  Dm7            C         Bb9
Quão grandioso amor como esse,
  Dm7                               C              Bb9
Que o senhor transformou-me de um pecador, para vencedor.

Dm7   C         Am7 Bb9
Eu irei para Jerusalém;
  Dm7    C             Am7   Bb9     Am7
E louvarei pra sempre o meu Deus;
    Gm7             Bb9                C
Toda honra e toda a glória seja dada a ti,
A7/4  A7 Dm7
Rei dos Reis.

  Dm7    C                      Bb9
Faça de mim Senhor, um verdadeiro adorador,
                     Dm7                       C        Bb9
E que não me deixe nunca, nunca, nunca, nunca, não, tropeçar.

Gm7                        A7
Quero para sempre te louvar e te adorar para
    Bb9                Gm7
sempre, oh meu Senhor, pois agora sei que fui
                 A7                      Bb9
comprado por um alto preço, foi o Senhor quem
          C
pagou...

Coro 1x

Dm            C             F
Eu quero subir, não ficar aqui, pois eu sei que
       A7/4            A7     Dm
muitos vão passar por tribulações, Cristo vai
   C              F              A74               A7
voltar e arrebatará o povo que o louva com um puro coração...

Coro 2x

Dedilhado:

Dm  C           Am7 Bb9
Eu irei para Jerusalém,
  Dm   C               Am7   Bb9    Am7
E louvarei, pra sempre o meu Deus,
Gm7                 Bb9                C
Toda honra e toda a gloria seja dada a Ti,
 A7/4  A7  Dm
Rei dos Reis.

(no improviso final, considerar os acordes do refrão)
Composição de Celio Rodrigues
Colaboração e revisão:
40.272 exibições
    • ½ Tom
    • A
    • Bb
    • B
    • C
    • Db
    • D
    • Eb
    • E
    • F
    • F#
    • G
    • Ab
  • Adicionar à lista

    0 comentários

    Ver todos os comentários
    00:00 / 00:00
    Outros vídeos desta música
    Repetir Qualidade Automático
    Outros vídeos desta música
    00:00 / 00:00
    Automático

    Cifra Club Pro

    Aproveite o Cifra Club com benefícios exclusivos e sem anúncios
    Cifra Club Pro
    Aproveite o Cifra Club com benefícios exclusivos e sem anúncios
    OK