Cifra Club

Aprenda

Through The Valley

Shawn James

Cifra: Principal (violão e guitarra)
tom: Eb (forma dos acordes no tom de B) Capotraste na 4ª casa
[Intro] Em  Am  Em  B7 
        Em  Am  Em  B7 

[Dedilhado - Intro]

Parte 1 De 4
   Em
E|-0------0------0----0------0------0-------|
B|---0------0------0----0------0------0-----|
G|-----0------0-----------0------0----------|
D|---------------2------------------2-------|
A|--------2------------------2--------------|
E|-0------------------0---------------------|

Parte 2 de 4
   Am
E|-0------0------0----0------0------0-------|
B|---1------1------1----1------1------0-----|
G|-----2------2-----------2------2----------|
D|--------2------------------2--------------|
A|-0-------------0----0-------------0-------|
E|------------------------------------------|

Parte 3 de 4
   Em
E|-0------0------0----0------0------0-------|
B|---0------0------0----0------0------0-----|
G|-----0------0-----------0------0----------|
D|---------------2------------------2-------|
A|--------2------------------2--------------|
E|-0------------------0---------------------|

Parte 4 de 4
   B7
E|--------2------2----2------2------2-------|
B|---0------0------0----0------0------0-----|
G|-----2------2-----------2------2----------|
D|--------1------------------1--------------|
A|-2-------------2----2-------------2-------|
E|------------------------------------------|

[Primeira Parte]

   Em
I walk through the valley
     Am
Of the shadow of death
    Em
And I fear no evil
              B7
Because I'm blind to it all
        Em
And my mind and my gun
              Am
They comfort me
            Em
Because I know
             B7
I'll kill my enemies
       Em
When they come

        Em
Surely goodness and mercy

Will follow me all the
 Am
Days of my life
             Em     
And I will dwell
                      B7
On this earth forevermore
        Em
Said I walk beside the still waters
             Am
And they restore my soul
             Em
But I can't walk
                    B7   
On the path of the right
              Em
Because I'm wrong

        Em             
Well I came upon a man
                 Am
At the top of a hill
    Em                      
He call himself the savior
              B7
Of the human race
         Em                    
Said he come to save the world
          Am
From destruction and pain
            Em                   B7   
But I said how can you save the world
        Em
From itself

( Em  Am  Em  B7 )
( Em  Am  Em  B7 )

           Em                     
Because I walk through the valley
         Am
Of the shadow of death
   Em                        B7
I fear no evil because I'm blind
       Em                          
And I walk beside the still waters
          Am
And they restore my soul
        Em         B7             Em
But I know when I die my soul is damned

        Em         B7             Em
And I know when I die my soul is damned
        Em         B7             Em
And I know when I die my soul is damned
Composição de Shawn James
Colaboração e revisão:
  • Lucas Kappaun
  • Reyniel Reynoso
  • Leoh Marquez
77.089 exibições
  • Simplificar cifra
    • ½ Tom
    • A
    • Bb
    • B
    • C
    • Db
    • D
    • Eb
    • E
    • F
    • F#
    • G
    • Ab
  • Adicionar à lista

    0 comentários

    Ver todos os comentários

    Conseguiu tocar?

    67 Tocaram 6 Ainda não

    Grave um vídeo tocando Through The Valley e nos envie!

    00:00 / 00:00
    Outros vídeos desta música
    Repetir Qualidade Automático
    Outros vídeos desta música
    00:00 / 00:00
    Automático

    Cifra Club Pro

    Aproveite o Cifra Club com benefícios exclusivos e sem anúncios
    Cifra Club Pro
    Aproveite o Cifra Club com benefícios exclusivos e sem anúncios
    OK