Cifra Club

Aprenda

Ruin

Shawn Mendes

Cifra: Principal (violão e guitarra)
Tom: D
[Intro]
           
E|--2h3p2h3p2h3p2------2h3p2h3p2h3p2-------------------------|
B|--3------------------3-------------------------------------|
G|--2------------------2-------------------------------------|
D|-----------------------------------------------------------|
A|-----------------------------------------------------------|
E|-----------------------------------------------------------|

E|-----------------------------------------------------------|
B|--7h8p7h8p7h8p7------7h8p7h8p7h8p7-------------------------|
G|--7------------------7-------------------------------------|
D|--7------------------7-------------------------------------|
A|-----------------------------------------------------------|
E|-----------------------------------------------------------|

 D                         G
Do ya, do you think about me?
     D                           G
And do ya, do you feel the same way, babe?
 D                             G
Do ya, do you remember how we felt?
      D                       G
Cause I do, so listen to me, baby

A               Bm   G
  And I'm not tryna ruin your happiness 
A                         Bm                   G        D
  But darling don't you know that I'm the only one for ya?
A               Bm   G
  And I'm not tryna ruin your happiness, baby
A                         Bm                     G
  But darling don't you know that I'm the only one, yeah

 D                              G
Do ya, do you think about me at all?
     D                            G
And do you, do you feel the same way? Oh, tell me babe
     D                             G
And do ya, do you remember how we felt?
       D                      G
'Cause I do, so listen to me now

Oh Oh

A               Bm   G
  And I'm not tryna ruin your happiness 
A                         Bm                   G        D
  But darling don't you know that I'm the only one for ya?
A               Bm   G
  And I'm not tryna ruin your happiness, baby
A                        Bm                     G
 But darling don't you know that I'm the only one

[Solo]  D  G

E|-----|------------|------------|-------------|-------------------|
B|-----|------------|------------|-------------|-------------------|
G|-----|-7------7\6-|-6----------|-------------|-7-----7-----------|
D|-7/9-|------9-----|----9---7h9-|-------------|-7h9---7h9-p7------|
A|-----|------------|------------|-7---\5------|-------------h9p7--|
E|-----|------------|------------|-------------|-------------------|

E|------------|------------------|-------------|-------------------|
B|------------|------------------|-------------|-------------------|
G|------------|----7-9-9b11b9b11-|-------------|-------------------|
D|------------|------------------|-------------|-------------------|
A|-/9---------|------------------|-------------|-------------------|
E|------------|------------------|-------------|-------------------|

E|------------|------------------|---------------------------------|
B|------------|------------------|-7h8-7---------------7-----------|
G|------------|------7---7-7h9-7-|-7---7-(repeat x10}--7-----------|
D|------------|--7h9-------------|---------------------------------|
A|------------|------------------|---------------------------------|
E|------------|------------------|---------------------------------|

A               Bm   G
  And I'm not tryna ruin your happiness 
A                         Bm                   G        D
  But darling don't you know that I'm the only one for ya?
A              Bm                   G
  And I don't wanna, I don't wanna ruin your happiness, baby
A                         Bm                   G
  But darling don't you know that I'm the only one, yeah

( D  D7 )

 G               D/F#            Em7
Do I ever said, do I ever said, do I
 G               D/F#          Em7
Do I ever said, do I ever said ooh
 G         D/F#            Bm7
Do I ever do I ever cross your mind


E|--2h3p2--------------------------|                 
B|--3------------------------------|                  
G|--2------------------------------|              
D|---------------------------------|                 
A|---------------------------------|                  
E|---------------------------------|
Composição de Geoff Warburton / Ido Zmishlany / Scott Harris / Shawn Mendes
Colaboração e revisão:
  • Marcos Paulo
  • Everardo Guerrero
  • Vitória Piñeiro
19.398 exibições
    • ½ Tom
    • A
    • Bb
    • B
    • C
    • Db
    • D
    • Eb
    • E
    • F
    • F#
    • G
    • Ab
  • Adicionar à lista

    0 comentários

    Mostrar mais comentários

    Conseguiu tocar?

    8 Tocaram 2 Ainda não

    Grave um vídeo tocando Ruin e mande pra gente!

    00:00 / 00:00
    outros vídeos desta música
    repetir qualidade Automático
    Outros vídeos desta música
    00:00 / 00:00
    Automático
    OK