Cifra Club

Please Please Please Let Me Get What I Want

She & Him

Cifra: Principal (violão e guitarra)
tom: C
Intro: Dm  G

E|-0~-----------------------------------|
B|-----3-1-3---1-0~--------5/8-5~-------|
G|-----------2--------------------------|
D|--------------------------------------|
A|--------------------------------------|
E|--------------------------------------|

C      G           C
  Good times for a change
G                   Em
  See the luck I've had
F                       Gsus4            G
  Could make a good man        turn bad

Refrão:
   F               G
So please, please, please
C       G       Am
Let me, let me,
F        G               Am   G  C  Em  F   G
  Let me get what I want this time
E|-------------------------0~-----------------------------------|
B|-1~--3-1~----1~--3-1~--------3-1-3---1-0~--------5/8-5~-------|
G|-----------0-----------0-----------2--------------------------|
D|--------------------------------------------------------------|
A|--------------------------------------------------------------|
E|--------------------------------------------------------------|

C               G          C
  Haven't had a dream in a long time
G                   Em
  See the life I've had
             F          Gsus4  G
Could make a good man turn bad

Refrão:
   F              G
So for once in my life
C   G    Am
  Let me get what I want
F          G                       Am  G  C  Em
Lord knows   it would be the first time
F          G                     C      C7
Lord knows it would be the first time
    F       G         C   G  Am     F         G       C    C7
E|-0h1~----------0-3-----3~--------5~----7-8-3~----1-0~---------0-------------|
B|---------3~--------1~-------------------------------------------3-1~--------|
G|----------------------------------------------------------------------------|
D|----------------------------------------------------------------------------|
A|----------------------------------------------------------------------------|
E|----------------------------------------------------------------------------|

Refrão:
   F               G
So please, please, please
C       G       Am
Let me, let me,
F        G               Am   G  C  Em  F   G
Let me get what I want this time
E|---------------------------------0~-----------------------------------|
B|-1~--3-1~----1~--3-1~----3h5~--------3-1-3---1-0~--------5/8-5~-------|
G|-----------0-----------0-------------------2--------------------------|
D|----------------------------------------------------------------------|
A|----------------------------------------------------------------------|
E|----------------------------------------------------------------------|
Composição de Zooey Deschanel / Matthew Ward
Colaboração e revisão:
  • Mariana Lorenzo
3.121 exibições
    • ½ Tom
    • A
    • Bb
    • B
    • C
    • Db
    • D
    • Eb
    • E
    • F
    • F#
    • G
    • Ab
  • Adicionar à lista

    0 comentários

    Ver todos os comentários

    Conseguiu tocar?

    3 Tocaram 0 Ainda não

    Grave um vídeo tocando Please Please Please Let Me Get What I Want e nos envie!

    00:00 / 00:00
    Outros vídeos desta música
    Repetir Qualidade Automático
    Outros vídeos desta música
    00:00 / 00:00
    Automático

    Cifra Club Pro

    Aproveite o Cifra Club com benefícios exclusivos e sem anúncios
    Cifra Club Pro
    Aproveite o Cifra Club com benefícios exclusivos e sem anúncios
    OK