Notificações Amigos pendentes

      Shunga Jung

      He Is a Pirate

      4.978 exibições
      Tom: F
      
      ------------------------------------------
      ------------------------------------------
      ------------------------------------------
      -0--0-0-0-0--0--0-0-0-0--0--0-0-0-0--0--0-
      ------------------------------------------
      ------------------------------------------
      
      
      Primeira Parte:
      
      1ª parte:
      
      
       D5(9)         Bb        C           D5(9)
      -------------0-1-1---1-3-0-0--------------
      ---1-3-3---3---3-3-------1-1---3-1-1h3----
      -2---2-2-------3-3-------0-0-------0h2----
      -----0---0-------------------------0--0-0-
      ---------------1---1-----3---3------------
      ------------------------------------------
      
      
      2ª parte:
      
      
       D5(9)         F         C           D5(9)
      -------------0-1-1---1-3-0-0--------------
      ---1-3-3---3---1-1-------1-1---3-1-1h3----
      -2---2-2-------2-2-------0-0-------0h2----
      -----0---0-------------------------0--0-0-
      -------------------------3---3------------
      ---------------3---3----------------------
      
      
      3ª parte:
      
      
       D5(9)         Gm
      -------------1-3-3---3-5-6-6---5-3-5------
      ---1-3-3---3---3-3-------------------3----
      -2---2-2-------3-3-------------------2----
      -----0---0-------------------------0---0--
      -------------------------0---0------------
      ---------------5---5----------------------
      
      
      4ª parte:
      
      
                             A
      ---0-1-1---3-5-------1-0-0-1-0------------
      -3-------------3---3---2-----2------------
      -----------------------2-----2------------
      -----------------------2-----2------------
      -----1---1---0---0-----0-----0------------
      ------------------------------------------
      
      
      Repetição da Primeira Parte:
      
      1ª parte:
      
      
       D5(9)         Bb        C           D5(9)
      -------------0-1-1---1-3-0-0--------------
      ---1-3-3---3---3-3-------1-1---3-1-1h3----
      -2---2-2-------3-3-------0-0-------0h2----
      -----0---0-------------------------0--0-0-
      ---------------1---1-----3---3------------
      ------------------------------------------
      
      
      2ª parte:
      
      
       D5(9)         F         C           D5(9)
      -------------0-1-1---1-3-0-0--------------
      ---1-3-3---3---1-1-------1-1---3-1-1h3----
      -2---2-2-------2-2-------0-0-------0h2----
      -----0---0-------------------------0--0-0-
      -------------------------3---3------------
      ---------------3---3----------------------
      
      
      3ª parte:
      
      
       D5(9)         Gm
      -------------1-3-3---3-5-6-6---5-3-5------
      ---1-3-3---3---3-3-------------------3----
      -2---2-2-------3-3-------------------2----
      -----0---0-------------------------0---0--
      -------------------------0---0------------
      ---------------5---5----------------------
      
      
      4ª parte:
      
      
      ---0-1-1---3-5-------1-0-0----------------
      -3-------------3---3----------3-1---------
      ------------------------------------------
      ------------------------------------------
      -----1---1---0---0-----0---0--------------
      ------------------------------------------
      
      
      5ª parte:
      
      
      D5(9) C Bb     A      Bb/A     A   Bb/A A
      ------0-1-1-3--5-------6-------0-0--1---0-
      -3-3--1-3-3----2-5-2---3-6-3---2-2--3---2-
      -2-2--0-3-3----2-----2-3-----3-2-2--3---2-
      ---------------2-------3------------------
      -0-0--3-1-1----0-------0-------0-0--0---0-
      ------------------------------------------
      
      
      Ponte:
      
      1ª parte:
      
      
       Dm     Bb/D  Dm   C5      D5
      -5-5-5---6----5----3-3-3-3-5--------------
      -6-6-6---6----6----1-1-1-1-3--------------
      -7-7-7---7----7---------------------------
      -0-0-0---0----0----3-3-3-3-5--------------
      ------------------------------------------
      ------------------------------------------
      
      
      2ª parte:
      
      
       Dm     Bb/D  Dm    G5  F5  E5  D5
      -5-5-5---6----5---------------------------
      -6-6-6---6----6---------------------------
      -7-7-7---7----7---------------------------
      -0-0-0---0----0-----5---3---2---0---------
      --------------------5---3---2---0---------
      --------------------5---3---2---0---------
      
      
      Segunda Parte:
      
      1ª parte:
      
      
           Dm
      ---0-1---3-5--3-1-0--1-3-5-3--------------
      -3----------------------------------------
      -------2--------0------0-----0------------
      -----0------------------------------------
      --------------3------------3--------------
      ---------------------3--------------------
      
      
      2ª parte:
      
      
                           D5(9)
      -1-3-5---3-1--0-1-0------0----------------
      ---------------------3-----1-3------------
      -------0---------------2-------2----------
      -----0---------------0-------0------------
      --------------0---------------------------
      ------------------------------------------
      
      
      3ª parte:
      
      
           Dm                  Bb
      ---0-1---0-1-3-1-3-5-3-1------------------
      -3-----------------------3----------------
      -------2-------0---------3----------------
      -----0---------------------3--------------
      -------------3-----0-----1----------------
      ------------------------------------------
      
      
      4ª parte:
      
      
                 Gm
      ---0-1-3-5-6---3-1---3-0------------------
      -3-----------3-----------3----------------
      -------------3-----0-------2--------------
      -----------------0-------0----------------
      ------------------------------------------
      -----------5------------------------------
      
      
      Terceira Parte:
      
      1ª parte:
      
      
           Dm   Bb/F   Dm
      ---0-5--x--6--x--5-5---5-3----------------
      -3---6--x--3--x--6-6----------------------
      -----7--x--3--x--7-7---0------------------
      -----0--x--3--x--0---0--------------------
      --------x-----x--------3------------------
      --------x-----x---------------------------
      
      
      2ª parte:
      
      
          Gm    Dm
      -x--3--x--1--x-0-1-0----------------------
      -x--3--x--3--x-------3--------------------
      -x--3--x--2--x---------2------------------
      -x--5--x--0--x-------0--------------------
      -x--5--x-----x-0--------------------------
      -x--5--x-----x----------------------------
      
      
      3ª parte:
      
      
           Dm   Bb/F   Dm
      ---0-5--x--6--x--5-5---5-3----------------
      -3---6--x--3--x--6-6----------------------
      -----7--x--3--x--7-7---0------------------
      -----0--x--3--x--0---0--------------------
      --------x-----x--------3------------------
      --------x-----x---------------------------
      
      
      4ª parte:
      
      
          Gm    Dm         D5
      -x--3--x--1--x-0-1-0----------------------
      -x--3--x--3--x-------3--------------------
      -x--3--x--2--x-------2--------------------
      -x--3--x--0--x-------0--------------------
      -x--5--x-----x-0-----0--------------------
      -x--5--x-----x-------0--------------------
      

      Comentários 0

      140 .
      140 cancelar

      conseguiu tocar?

      covers

      Grave um vídeo tocando He Is a Pirate e mande pra gente!

      Ex.: http://www.youtube.com/watch?v=0IvSvIwGdwk
      ver covers de outras músicas »
      0:00 / 0:00

      Capítulos

        1 versão de violão dificuldade exibições contribuição e correção
        1 versão de guitarra dificuldade exibições contribuição e correção
        1 versão de cavaco dificuldade exibições contribuição e correção
        1 versão de teclado dificuldade exibições contribuição e correção
        play/pausefechar subir/descer velocidade
        6ª corda E5ª corda A4ª corda D3ª corda G2ª corda B1ª corda E
          acordes
          publicidade
          fechar
          ok