Cifra Club

Abertura

Shurato

Cifra: Principal (violão e guitarra)
tom: G
Intro:
E|-------------------------15-17-|
B|----------15-17-17-15----------|
G|-------16-------------16-------|
D|-------------------------------|
A|-------------------------------|
E|-------------------------------|

Intro 4x: Em  D/E

Bm D Em
     O espírito desse herói
Em
viaja para o futuro
D      Am        Em D/E Em D/E Em
Shurato, tente a verdade encontrar!

Bm D Em
     A amizade que havia na Terra,
Em
ameaçada pelas forças do mal,
D      Am        Em D/E Em D/E Em
existe guerra no mundo celestial
Am               Em
vença sua tristeza, Shurato,
Am               Em
lute contra esta escuridão,
G
o sol nascente, tinge o céu,
Am               Bm
e aquece a Terra com seu calor!
Bm D Em
     KEEP ON SHINING SHINING quero ver brilhar
Em
KEEP ON SHINING seus olhos
Em
KEEP ON SHOOTING SHOOTING quero ver vencer
Em
KEEP ON SHOOTING o amor
C        Bm      Em
Lute com emoção! Shurato!
Final:
E|---17b-17-15----------------17-15----------|
B|-------------15-17-17-17-15-------15-17/17-|
G|-------------------------------------------|
D|-------------------------------------------|
A|-------------------------------------------|
E|-------------------------------------------|
00:00 / 00:00
Outros vídeos desta música
Repetir
Outros vídeos desta música
Compositor não encontrado.
Colaboração e revisão:
  • Rick Martinez
10.934 exibições
    • ½ Tom
    • A
    • Bb
    • B
    • C
    • Db
    • D
    • Eb
    • E
    • F
    • F#
    • G
    • Ab
  • Adicionar à lista

    0 comentários

    Ver todos os comentários

    Entre para oCifra Club PRO

    Tenha acesso a benefícios exclusivos no App e no Site

    • Chega de anúncios

    • Prioridade de compra em lançamentos

    • Mais recursos no app do Afinador

    • Atendimento Prioritário

    • Descontos nos produtos Cifra Club

    • Ajude a produzir mais conteúdo

    00:00 / 00:00

    Cifra Club Pro

    Aproveite o Cifra Club com benefícios exclusivos e sem anúncios
    Cifra Club Pro
    Aproveite o Cifra Club com benefícios exclusivos e sem anúncios
    OK