Cifra Club

Aprenda

Suicidal Dream

Silverchair

Cifra: Principal (violão e guitarra)
Tom: C
**Key**
/-slide
x-play muffled strings

**Tuning** Standard (EADGBE|--low to high)

Fig 1 intro/verse
E|-----------------------------------|                  E|--0--------|
B|-----------------------------------|                  B|----0------|
G|-------4-----4---------4-----4---4-|  before entering 
D|-----4-----4---4-----4-----4-------|  the next verse
A|-0-2---------------------------0---|  add this to the 
E|---------3-------3-0-----2---------|  end 

Fig 2 chorus  (just the chord progression)
  Bm    F#   Em   G
E|-2----2----0----3-|
B|-3----2----0----3-|
G|-4----3----0----0-|
D|-4----4----2----0-|
A|-2----4----2----2-|
E|-2----2----0----3-|

Fig 3 interlude/solo
E|-----------------------------|----------|
B|----3------------------------|----------|
G|-4-----4-2---------7-8-------|----------|
D|-----------4-5--4------7--9--|----------|
A|-----------------------------|-5-4------|
E|-----------------------------|-----5--7-|

GTR2 (solo part), when playing live Daniel just plays this, no solo
  
E|---------------------|
B|---------------------|
G|-4--7-7--------------|
D|-4--7-7--0--5---4--4-|
A|-2--5-5--0--5-x-4--4-|
E|------------3-x-2--2-|
Composição de Daniel Johns
Colaboração e revisão:
  • Clayton Monteiro
45.893 exibições
    • ½ Tom
    • A
    • Bb
    • B
    • C
    • Db
    • D
    • Eb
    • E
    • F
    • F#
    • G
    • Ab
  • Adicionar à lista

    0 comentários

    Mostrar mais comentários

    Conseguiu tocar?

    8 Tocaram 3 Ainda não

    Grave um vídeo tocando Suicidal Dream e mande pra gente!

    00:00 / 00:00
    outros vídeos desta música
    repetir qualidade Automático
    Outros vídeos desta música
    00:00 / 00:00
    Automático
    OK