Notificações Amigos pendentes

      Silverchair

      World Upon Your Shoulders

      18.483 exibições
      Tom: G
      Introdução
      
      
      
      e|-----7-------3-3/53-3-3---2h3--3---------7-7h8-10---3/53-3-3---3-2-0----------------|
      B|-3/8---8-8---3-3/53-3-3-----------3--3/8--------8---3/53-3-3---------3/5------------|
      G|-0---------0-0-0-----0-0--0----0-0----0----0---0----0-0-----0-0--0----------2p0--------|
      D|----------------------------------------------------0---------------------------0-1----|
      A|---------------------------------------------------------------------------------------|
      E|-------------------------------------------------------------------------------------0-|
      
      
      Verso 
      
      
         Em    Bm    D     C       Em    Bm    D     Em     Bm    C
      E|-7-----2-----------0-------7-----2-----------------------0-| x2
      B|-8-----3-----7-----5-------8-----3-----7-----8-----3-----5-|
      G|-x-----x-----x-----0-------x-----x-----x-----x-----x-----0-|
      D|-9-----4-----7-----5-------9-----4-----7-----9-----4-----5-|
      A|-7-----2-----5-----3-------7-----2-----5-----7-----2-----3-|
      E|-----------------------------------------------------------|
      
      
      All the bridges in the world won't save you
      If there is no other side to cross to
      
      
      Pré-Refrão
      
          Bm    Am7
      E|--2-----3-----|x2
      B|--0-----1-----|
      G|--2-----0-----|
      D|--0-----2-----|
      A|--2-----0-----|
      E|--------------|
      
      
      Bm                 Am7           
        When you're not feelin' again  
      Bm                   Am7         
        The world's not too much       
                                       
                                       
      Refrão
      
      
        D6/F#  Am7   D6/F#  C     G
      E|--2-----0-----2-----3-----3-----|
      B|--0-----1-----0-----1-----3-----|
      G|--2-----0-----2-----0-----0-----|
      D|--0-----2-----0-----2-----0-----|
      A|--x-----0-----x-----3-----2-----|
      E|--2-----------2-----------3-----|
      
      
                D6/F#            Am7
      Take the world upon your shoulders
                D6/F#            C  G
      Take the world upon your shoulders
          D6/F#                    Am7
      And burn, burn, burn, burn, burn    
               D6/F#             C               
      Take the world upon your shoulders
      
      Pré-Verso
      
      E|--0-2-0-----------------|
      B|--------3/5-------------|
      G|------------2p0---------|
      D|-----------------0-1----|
      A|------------------------|
      E|---------------------0--|
      
      
      
      Verso
      
      
         Em    Bm    D     C       Em    Bm    D     C     Bm    C
      E|-7-----2-----------0-------7-----2-----------------------0-| x2
      B|-8-----3-----7-----5-------8-----3-----7-----8-----3-----5-|
      G|-x-----x-----x-----0-------x-----x-----x-----x-----x-----0-|
      D|-9-----4-----7-----5-------9-----4-----7-----9-----4-----5-|
      A|-7-----2-----5-----3-------7-----2-----5-----7-----2-----3-|
      E|-----------------------------------------------------------|
      
      
      Half full glasses
      Lost in empty houses
      
      Pre-Refrão
      
      
         Bm7    Am7                 
      E|--2-----3-----------5---------------2-----2----2--3--|
      B|--0-----1-------3-----3---3-----------0-----0--0--1--|
      G|--2-----0-----------------------2-------2------2--0--|
      D|--0-----2--2/4----5-----5-----0----------------0--2--|
      A|--2-----0-------------------2-----2------------2--0--|
      E|-----------------------------------------------------|
      
      Bm7                  Am7          (toca o solo ali do meio)
         When you're not feeling again
      Bm7                    Am7 
        The world's not too much
      
      Refrão
      
      
        D6/F#  Am7   D6/F#  C     G
      E|--2-----0-----2-----3-----3-----|
      B|--0-----1-----0-----1-----3-----|
      G|--2-----0-----2-----0-----0-----|
      D|--0-----2-----0-----2-----0-----|
      A|--x-----0-----x-----3-----2-----|
      E|--2-----------2-----------3-----|
      
      
                D6/F#            Am7
      Take the world upon your shoulders
                D6/F#            C  G
      Take the world upon your shoulders
          D6/F#                    Am7
      And burn, burn, burn, burn, burn    
               D6/F#             C               
      Take the world upon your shoulders
      
      
      Interlude
      
      E|---------6---------------6-------|---------3---------------3-------|
      B|-----4-----4---4-----4-----4---4-|-----1-----1---1-----1-----1---1-|
      G|-------0-----0---------0-----0---|-------0-----0---------0-----0---|
      D|---5---------------5-------------|---2---------------2-------------|
      A|-6---------------6---------------|-3---------------3---------------|
      E|---------------------------------|---------------------------------|
      
      
      E|---------6---------------6-------|---------------------------------|
      B|-----4-----4---4-----4-----4---4-|-----1---1-1---1-----1---1-1---1-|
      G|-------0-----0---------0-----0---|-------0-----0---------0-----0---|
      D|---5---------------5-------------|---2---------------2-------------|
      A|-6---------------6---------------|-3---------------3---------------|
      E|---------------------------------|---------------------------------|
      
      Violent, big and violent
      
      
      E|---------6---------------6-------|------------------------0-------|
      B|-----4-----4---4-----4-----4---4-|-----1---1-1---1----1-----1---1-|
      G|-------0-----0---------0-----0---|-------0-----0--------2-----2---|
      D|---5---------------5-------------|---2--------------2-------------|
      A|-6---------------6---------------|-3---------------0--------------|
      E|---------------------------------|--------------------------------|
      
      Like a thing that´s big
      Big and violent
      
      Solo
      
      E|-----0-2h3p2-0------------------3------3-----3--------3-----5-------| 1x
      B|------------------3/5-5-3h5-0---1--0h1-----1------0h1---1/3---3-----|
      G|--------------------------------0--------0--------------------------|
      D|--2-----------------------------2-----------------------------------|
      A|--2-----------------------------0-----------------------------------|
      E|--0-----------------------------------------------------------------|
      
      A world that's big and violent
      
      
      E|----0-2-3-2h3p2-0-----------------3------3-----3--------3-----5----| 3x
      B|-------------------3/5-5-3h5-0-0--1--0h1-----1------0h1---1/3---3--|
      G|----------------------------------0--------0-----------------------|
      D|--2-------------------------------2--------------------------------|
      A|--2-------------------------------0--------------------------------|
      E|--0----------------------------------------------------------------|
      
                                                                        
      
      E|-------------------------------------------------------------------------------|
      B|-------------------------------------------------------------------------------|
      G|-----------------------------------------0-----0-----0-----0-----0-----0-----0-|
      D|-------14-14-12------14-14-12---10-----5-----7-----5-----7-----5-----4-----2---|
      A|-------14-14-12------14-14-12---10---7-----9-----7-----9-----7-----5-----3-----|
      E|--/12------------/12------------8----------------------------------------------|
      
          
      
         Em    Bm  Em   C#m  Em   C
      E|-------2-------------------------------|
      B|-------3---------5--------1------1-----|
      G|-------4---------6--------0---------0--|
      D|--2----4---2-----6---2----2--0h2-------|
      A|--2----2---2-----4---2----3------------|
      E|--0--------0---------0-----------------|
      
      
      Pré-Refrão
      
          Bm    Am7
      E|--2-----3-----|x2
      B|--0-----1-----|
      G|--2-----0-----|
      D|--0-----2-----|
      A|--2-----0-----|
      E|--------------|
      
      
      Bm                 Am7           
        When you're not feelin' again  
      Bm                   Am7         
        The world's not too much       
      
      
      Refrão
      
      
        D6/F#  Am7   D6/F#  C     G
      E|--2-----0-----2-----3-----3-----|
      B|--0-----1-----0-----1-----3-----|
      G|--2-----0-----2-----0-----0-----|
      D|--0-----2-----0-----2-----0-----|
      A|--x-----0-----x-----3-----2-----|
      E|--2-----------2-----------3-----|
      
      
                D6/F#            Am7
      Take the world upon your shoulders
                D6/F#            C  G
      Take the world upon your shoulders
          D6/F#                    Am7
      And burn, burn, burn, burn, burn    
               D6/F#             C               
      Take the world upon your shoulders
                D6/F#            Am7
      Take the world upon your shoulders
                D6/F#            C  G
      Take the world upon your shoulders

      Comentários 0

      140 .
      140 cancelar

      conseguiu tocar?

      covers

      Grave um vídeo tocando World Upon Your Shoulders e mande pra gente!

      Ex.: http://www.youtube.com/watch?v=0IvSvIwGdwk
      ver covers de outras músicas »
      0:00 / 0:00

      Capítulos

        1 versão de violão dificuldade exibições contribuição e correção
        1 versão de guitarra dificuldade exibições contribuição e correção
        1 versão de cavaco dificuldade exibições contribuição e correção
        1 versão de teclado dificuldade exibições contribuição e correção
        2 versões de Guitar Proformatodownloadscontribuição
        play/pausefechar subir/descer velocidade
        6ª corda E5ª corda A4ª corda D3ª corda G2ª corda B1ª corda E
          acordes
          publicidade
          fechar
          ok