Cifra Club

Ojalá

Silvio Rodriguez

Cifra: Versão 3 (violão e guitarra)
tom: Am
Riff1
         Dm             Dmmaj7             Dm7              Dm6
E|--------10------|--------9-------|--------8-------|--------7-------|
B|------10----10--|------10----10--|------10----10--|------10----10--|
G|----10----10----|----10----10----|----10----10----|----10----10----|
D|--0-------------|--0-------------|--0-------------|--0-------------|
A|----------------|----------------|----------------|----------------|
E|----------------|----------------|----------------|----------------|

Riff2
         C                C                C                C
E|--------8-------|--------8-------|--------8-------|--------8-------|
B|------8-----8---|------8-----8---|------8-----8---|------8-----8---|
G|----9-----9-----|----9-----9-----|----9-----9-----|----9-----9-----|
D|----------------|--10------------|----------------|--10------------|
A|----------------|----------------|----------------|----------------|
E|--8-------------|----------------|--8-------------|----------------|

Riff3
        Em                Em               A                A
E|--------7-------|--------7-------|--------5-------|--------5-------|
B|------8-----8---|------8-----8---|------5-----5---|------5---------|
G|----9-----9-----|----9-----9-----|----6-----6-----|----6-----6-----|
D|----------------|--9-------------|----------------|--7-------------|
A|--7-------------|----------------|----------------|----------------|
E|----------------|----------------|--5-------------|----------------|

        D                A/C#
E|--------5-------|--------5-------|
B|------7---------|------5---------|
G|----7-----7-----|----6-----6-----|
D|----------------|----------------|
A|--5-------------|--4-------------|
E|----------------|----------------|

Riff4
         Bm               D/A              A                A
E|--------2-------|--------2-------|--------5-------|--------5-------|
B|------3-----3---|------3-----3---|------5-----5---|------5---------|
G|----4-----4-----|----2-----2-----|----6-----6-----|----6-----6-----|
D|----------------|----------------|----------------|--7-------------|
A|--2-------------|--0-------------|----------------|----------------|
E|----------------|----------------|--5-------------|----------------|

         G              F#
E|--------3-------|--------2-------|
B|------3---------|------2---------|
G|----4-----4-----|----3-----3-----|
D|----------------|----------------|
A|----------------|----------------|
E|--3-------------|--2-------------|

Riff5
         Bm               D/A              E                *
E|--------2-------|--------2-------|--------0-------|------0-----0---|
B|------3-----3---|------3-----3---|------0-----0---|----0-----0-----|
G|----4-----4-----|----2-----2-----|----1-----1-----|--2-----1-------|
D|----------------|----------------|----------------|----------------|
A|--2-------------|--0-------------|----------------|----------------|
E|----------------|----------------|--0-------------|----------------|

         Dm               Dm7/C           Gm6/A#             A
E|--------1-------|--------1-------|--------0-------|--------0-------|
B|------3-----3---|------3-----3---|------3-----3---|------2-----2---|
G|----2-----2-----|----2-----2-----|----0-----0-----|----2-----2-----|
D|--0-------------|----------------|----------------|----------------|
A|----------------|--3-------------|--1-------------|--0-------------|
E|----------------|----------------|----------------|----------------|

Riff6
         Fm
E|--------8-------|
B|------9-----9---|
G|----10----10----|
D|----------------|
A|--8-------------|
E|----------------|

Riff7
         Fm               Fm               G                G
E|--------8-------|--------8-------|--------3-------|--------3-------|
B|------9-----9---|------9-----9---|------3-----3---|------3-----3---|
G|----10----10----|----10----10----|----4-----4-----|----4-----4-----|
D|----------------|--10------------|----------------|--5-------------|
A|--8-------------|----------------|----------------|----------------|
E|----------------|----------------|--3-------------|----------------|

         G                G
E|--------3-------|--------3-------|
B|------3-----3---|------3-----3---|
G|----4-----4-----|----4-----4-----|
D|----------------|--5-------------|
A|----------------|----------------|
E|--3-------------|----------------|

Riff8
         C               Cmaj7/B            Am               G6
E|--------0-------|--------0-------|--------0-------|--------0-------|
B|------1-----1---|------1-----0---|------1-----1---|------0-----0---|
G|----0-----0-----|----0-----0-----|----2-----2-----|----0-----0-----|
D|----------------|----------------|----------------|----------------|
A|--3-------------|--2-------------|--0-------------|----------------|
E|----------------|----------------|----------------|--3-------------|

         F                Em
E|--------1-------|--------0-------|
B|------1-----2---|------0-----0---|
G|----2-----2-----|----0-----0-----|
D|----------------|----------------|
A|----------------|----------------|
E|--1-------------|--0-------------|

Riff9
         C                C                C                C
E|--------8-------|------------8---|------------8---|------------8---|
B|------8-----8---|--------8-10----|--------8-10----|----------8-----|
G|----9-----9-----|------9---------|------9---------|--------9-------|
D|----------------|----------------|----------------|------10--------|
A|----------------|----10----------|----10----------|----10----------|
E|--8-------------|--8-------------|--8-------------|--8-------------|

         C
E|--8-------------|
B|--8-------------|
G|--9-------------|
D|--10------------|
A|--10------------|
E|--8-------------|


   R1                R1
   Dm Dmmaj7 Dm7 Dm6 Dm Dmmaj7 Dm7 Dm6

   R1                                            R1
   Dm    Dmmaj7     Dm7           Dm6            Dm        Dmmaj7 Dm7 Dm6
      Ojalá que las hojas no te toquen el cuerpo cuando caigan,
   R2                                     R1
   C       C             C      C         Dm     Dmmaj7 Dm7 Dm6
      para que no las puedas convertir en cristal.
   R3                                                         R4
   Em  Em          A      A           D           A/C#       Bm    D/A
      Ojalá que la lluvia deje de ser milagro que baja por tu cuerpo.
                                     R5
    A    A           G     F#        Bm   D/A   E *
      Ojalá que la luna pueda salir sin ti.
                                         R1
   Dm    Dm7/C       Gm6/A#     A        Dm Dmmaj7 Dm7 Dm6
      Ojalá que la tierra no te bese los pasos.

   R1                                    R2
   Dm    Dmmaj7    Dm7       Dm6         C
      Ojalá se te acabe la mirada constante,
                                           R6
      C             C           C          Fm
      la palabra precisa, la sonrisa perfecta.
         Fm      G                        C
      Ojalá pase algo que te borre de pronto,
          E       Am        C         F
      una luz cegadora, un disparo de nieve.
                   G                     C
      Ojalá por lo menos que me lleve la muerte,
           E        Am          C        F
      para no verte tanto, para no verte siempre.
                        R1                           R2
                        Dm Dmmaj7 Dm7   Dm6          C    C C C
      En todos los segundos,         en todas las visiones.
   R7                                      R1
   Fm    Fm        G    G  G   G           Dm   Dmmaj7 Dm7 Dm6
      Ojalá que no pueda     tocarte ni en canciones.

   R1
   Dm Dmmaj7 Dm7 Dm6

   R1                                         R1
   Dm    Dmmaj7      Dm7            Dm6       Dm           Dmmaj7 Dm7 Dm6
      Ojalá que la aurora, no de gritos que caigan en mi espalda.
    R2                                     R1
    C    C         C       C               Dm  Dmmaj7 Dm7 Dm6
      Ojalá que tu nombre, se le olvide a esa voz.
   R3                                                     R4
   Em  Em       A       A        D              A/C#      Bm D/A
      Ojalá las paredes no retengan tu ruido de camino cansado.
                                   R5
    A    A           G      F#     Bm      D/A   E *
      Ojalá que el deseo se vaya tras de ti,
                                          R1
   Dm      Dm7/C     Gm6/A#     A         Dm  Dmmaj7 Dm7 Dm6
      a tu viejo gobierno de difuntos y flores.

   R1                                 R2
   Dm    Dmmaj7    Dm7       Dm6      C
      Ojalá se te acabe la mirada constante,
                                           R6
         C           C           C         Fm
      la palabra precisa, la sonrisa perfecta.
         Fm      G                        C
      Ojalá pase algo que te borre de pronto,
          E       Am        C         F
      una luz cegadora, un disparo de nieve.
                   G                     C
      Ojalá por lo menos que me lleve la muerte,
           E        Am          C        F
      para no verte tanto, para no verte siempre.
                     G                       C
      En todos los segundos, en todas las visiones.
         E         Am     C               F
      Ojalá que no pueda tocarte ni en canciones.

                 G                        C
      Ojalá pase algo que te borre de pronto,
          E       Am        C         F
      una luz cegadora, un disparo de nieve.
                   G                     C
      Ojalá por lo menos que me lleve la muerte,
           E        Am          C         F
      para no verte tanto, para no verte siempre.
                     R1                 R2
                     Dm Dmmaj7 Dm7      Dm6          C    C C C
      En todos los segundos,         en todas las visiones.
   R7                                      R8
   Fm    Fm          G  G G   G            C     Cmaj7/B  Am G6 F Em
      Ojalá que no pueda    tocarte ni en canciones.

   R1                R9
   Dm Dmmaj7 Dm7 Dm6 C C C C C
Composição de Silvio Rodríguez
42 exibições
    • ½ Tom
    • Am
    • Bbm
    • Bm
    • Cm
    • C#m
    • Dm
    • Ebm
    • Em
    • Fm
    • F#m
    • Gm
    • G#m
  • Adicionar à lista

    0 comentários

    Ver todos os comentários

    Conseguiu tocar?

    0 Tocaram 0 Ainda não

    Grave um vídeo tocando Ojalá e nos envie!

    00:00 / 00:00
    Outros vídeos desta música
    Repetir Qualidade Automático
    Outros vídeos desta música
    00:00 / 00:00
    Automático

    Cifra Club Pro

    Aproveite o Cifra Club com benefícios exclusivos e sem anúncios
    Cifra Club Pro
    Aproveite o Cifra Club com benefícios exclusivos e sem anúncios
    OK