Cifra Club

Aprenda

This Song Saved My Life

Simple Plan

Cifra: Principal (violão e guitarra)
tom: D
Intro: Bm      G       D       A

INTRO
E|----------|--------|----2--|----------------------------------------------|
B|------3---|--------|---3-3-|----2-----------------------------------------|
G|-----4--4-|----0---|--2----|---2-2----------------------------------------|
D|---4------|---0-0--|-0-----|--2-------------------------------------------|
A|-2--------|--2-----|-------|-0--------------------------------------------|
E|----------|-3------|-------|----------------------------------------------|

verso:
E|-0-----0-----0-----0-------0-----0-----0-----0-----------------------------| ______
B|---3-----3-----3-----3-------3-----3-----3-----3---------------------------|       |
G|-----2-----2-----2------2------2-----2-----2------2------------------------|       |
D|---------------------------------------------------------------------------|       |
A|-5-------------------------------------------------------------------------|       |
E|---------------------------3-----------------------------------------------|       |
                                                                                     |
E|-------0------------0------0-----0-----3--2-----0--------------------------|       |
B|---3-----3------3-----3------3-----3---------3-----------------------------|       |
G|-----2-----2------2-----2------2-----2-------------------------------------|       |
D|---------------------------------------------------------------------------|       |
A|-2------------0------------------------------------------------------------|       |
E|---------------------------3-----------------------------------------------|

D
I wanna start by letting you know this
G
Because of you my life has a purpose
Bm
You helped me be who I am today
A
I see myself in every word you say
D                                      G
Sometimes it feels like nobody gets me trapped in a world
Where everyone hates me
Bm
There's so much that I'm going through
A
I wouldn't be here if it wasn't for you

Refrão:
Bm           G              D
I was broken I was chucking I was lost
       A
 This song saved my life
Bm              G                 D
I was bleeding  Stopped believing Could have died
     A
This song saved my life
Bm          G
I was down  I was drowning
D           A              G
But it came on just in time
      A
This song saved my life

D
Sometimes I feel like you've known me forever
G
You always know how to make me feel better
Bm
Because of you my dad and me
A
Are so much closer than we used to be
D
You're my scape when I'm stuck in this small town
G
I turn you up whenever I feel down,
Bm
You let me know like no one else
A
That it's ok to be myself

Bm           G              D
I was broken I was chucking I was lost
       A
 This song saved my life
Bm              G                 D
I was bleeding  Stopped believing Could have died
     A
This song saved my life
Bm          G
I was down  I was drowning
D           A              G
But it came on just in time
      A
This song saved my life

Bm                          D        A
You'll never know what it means to me
Bm                            D     A        G
That I'm not alone, that I'll never have to be

Bm           G              D
I was broken I was chucking I was lost
       A
 This song saved my life
Bm              G                 D
I was bleeding  Stopped believing Could have died
     A
This song saved my life
Bm          G
I was down  I was drowning
D           A              G
But it came on just in time
      A
This song saved my life

D
 My Life, My Life
A
 This song saved my life
Bm
 My Life, My Life
G     A
 This song saved my life
D
 My Life, My Life
A
 This song saved my life
Bm
 My Life, My Life
G
 This song saved my life
Composição de Simple Plan / Toby Gad
Colaboração e revisão:
17.082 exibições
    • ½ Tom
    • A
    • Bb
    • B
    • C
    • Db
    • D
    • Eb
    • E
    • F
    • F#
    • G
    • Ab
  • Adicionar à lista

    0 comentários

    Ver todos os comentários

    Conseguiu tocar?

    13 Tocaram 2 Ainda não

    Grave um vídeo tocando This Song Saved My Life e nos envie!

    00:00 / 00:00
    Outros vídeos desta música
    Repetir Qualidade Automático
    Outros vídeos desta música
    00:00 / 00:00
    Automático

    Cifra Club Pro

    Aproveite o Cifra Club com benefícios exclusivos e sem anúncios
    Cifra Club Pro
    Aproveite o Cifra Club com benefícios exclusivos e sem anúncios
    OK