Cifra Club

Aprenda

Untitled

Simple Plan

Tab de baixo: Principal
Its totally easy :D, you have to play the chorus until to the solo:

Chorus
|--------------------------------------|
|--------------------------------------|
|12slide up7~~~~~-4~~~~~---------------|
|------------------------5~~~~~-7~~~~~-|

|-----------------------------|
|-----------------------------|
|-7~~~~~-4~~~~~---------------|
|---------------5~~~~~-7~~~~~-|

theninto verse:
|--------|
|--------|
|-7~~~~~~|
|--------|

Chorus
|--------------------------------------|
|--------------------------------------|
|12slide up7~~~~~-4~~~~~---------------|
|------------------------5~~~~~-7~~~~~-|

|-----------------------------|
|-----------------------------|
|-7~~~~~-4~~~~~---------------|
|---------------5~~~~~-7~~~~~-|

Solo (let all ring while you play!):
|----------------------------------------|
|----------------------------------------|
|----------------------------------------|
|-5--5-5--7--7-7--9--9-9--0--0-0--5--5-5-|

|-------------------|
|-------------------|
|-------------------|
|-7~~~----4~~~-4~~~-|

Outro(don't forget, let it ring as the best you can:D ):
|------------------|
|------------------|
|------------------|
|-9999999999999999-|

|--------------------------------|
|--------------------------------|
|--------------------------------| 4 times!
|-0--0-0--9--9-9--5--5-5--7--7-7-|

after that:
|-------------|
|-------------|
|-0~~~~~~~~~~~|
|-------------|

Thats it!
Easy ;) i swear to you, if you're a true sp fan, you'll get gooseflesh
Compositor não encontrado.
4.825 exibições

0 comentários

Ver todos os comentários

Conseguiu tocar?

0 Tocaram 0 Ainda não

Grave um vídeo tocando Untitled e nos envie!

00:00 / 00:00
Outros vídeos desta música
Repetir Qualidade Automático
Outros vídeos desta música
00:00 / 00:00
Automático

Cifra Club Pro

Aproveite o Cifra Club com benefícios exclusivos e sem anúncios
Cifra Club Pro
Aproveite o Cifra Club com benefícios exclusivos e sem anúncios
OK