Cifra Club

Ali

Skank

Tab de baixo: Principal
exibições 6.593
Skank-MTV Ao Vivo

Baixo só entra (0:24) "..de outros oceanos.."

|------------|-------------||-------------|---------------|G
|--77--6~----|-------------||-------7-----|---------------|D
|------------|-----9-------||--99---------|--9------------|A
|------------|-------------||-------------|---------------|E


                             (0:46)"...como invenção"
|------------|-------------||-----------------------------|
|------------|-------------||-----------------------------|
|--/4--------|-------------||--44-4-44--------------------|
|------4---2-|-------------||----------44-4-44--22-2-22---|
                             (0:56) "...virá"
|------------|-------------||-----------------------------|
|------------|-------------||--------------------------679|
|------------|-------------||--7777-9999-------77-5h7x7---|
|-/14141414--|-------------||------------5555h7-----------|
                             (1:17) "...ela amou o que"
|------------|-------------||-----------------------------|
|------------|-------------||-------99--------------------|
|-7/19/7-----|-------------||--77-7---7------99-----------|
|------------|-------------||-----------77-7----7---------|
                             
|------------|-------------||-----------------------------|
|------------|-------------||-----------------------------|
|--4-2-0-----|--0h12h0-----||-----------------------------|
|------------|-------------||-----------------------------|
  Repete os riffs com algumas modificações,até (2:28) quando entra o solo
|------------|-entra direto||-----------------------------|
|------------|-------(solo)||-------6---------(3 vezes)---|
|--7777--9999|-------444---||-44h0h4-------7--------------|
|------------|--5555-------||--------55h0h5-5-------------|
   Na quarta vez (2:46)       Sem baixo nessa parte 
|------------|-------------||-----------------------------|
|-------6----|-------------||--"Ela andou e eu fiquei"----|
|-44h0h4-----|-------------||-----------------------------|
|--------2~~~|-------------||-----------------------------|
  (3:00) "..reticencia"
|------------|--------------------------------------------|
|------------|--------------------------------------------|
|-44-4-44----|--------------------------------------------|
|------------|-44-4-44--22-2-22/14h12h14h12h14h12---------|
  Agora vem o refrão com várias modificações
|------------|-------------||-----------------------------|
|------------|-------------||------------99-----------679-|
|-77775h777--|-99997h9999--||-------44-77--77-44-775h7----|
|------------|-------------||--55-5-------------5---------|
   E no finalzinho
|------------|------------------------------------------|
|--7-7--9-9--|-11-11--9-9-7-6---------------------------|
|------------|---------------7~~~~~~--------------------|
|------------|------------------------------------------|

A música é cheia de detalhes que eu fiquei com preguiça de colocar,
mas com esse esqueleto dá pra chegar neles.Qualquer dúvida ou correção
mande para o email fabao_zero@hotmail.com,Abraços
Composição: Nando Reis / Samuel RosaColaboração e revisão:
  • Fábio Ferreira

0 comentários

    mostrar mais comentários

    Conseguiu tocar?

    0tocaram0ainda não

    Grave um vídeo tocando Ali e mande pra gente!

    00:00 / 00:00
    outros vídeos desta música
    repetirqualidadeautomática
    Outro vídeos desta música
      00:00 / 00:00
      automática
      OK