Cifra Club

Aprenda

Amores Imperfeitos

Skank

Cifra: Principal (violão e guitarra)
tom: F
[Intro] G  F5(7M/9)  G  F5(7M/9)

Violão 1
E|-7------7-----7------7-----5-----5--7-----|
B|---8------8-----8------8-----8--------8---|
G|-----7------7-----7------7-----7--------7-|
D|------------------------------------------|
A|------------------------------------------|
E|------------------------------------------|

E|-7------7------0-----0------0-------------|
B|---8------8------6-----6------------------|
G|-----7------7------5-----5----------------|
D|------------------------------------------|
A|------------------------------------------|
E|------------------------------------------|

Violão 2
E|------------------------------------------|
B|------------------------------------------|
G|-5/7\5-4-5-4---------------------5-4-5/7~-|
D|-------------7-5---5-7b8r7-5--------------|
A|-----------------7-----------7-8----------|
E|------------------------------------------|

[Primeira Parte]

Violão 2

   G
E|------------------------------------------|
B|---3--------3--------3--------3-----------|
G|-----0--------0--------0--------0---------|
D|-------0--------0--------0--------0-------|
A|------------------------------------------|
E|-3--------3--------3--------3-------------|

   F7M
E|---0-----0-----0--------------------------|
B|-----1-----1------------------------------|
G|-------2-----2----------------------------|
D|-3----------------------------------------|
A|------------------------------------------|
E|------------------------------------------|

   Em7
E|---0------0------0------------------------|
B|-----3------3------3----------------------|
G|-------0------0------0--------------------|
D|------------------------------------------|
A|------------------------------------------|
E|-0----------------------------------------|

G
  Não precisa me lembrar, não vou fugir de nada
F5(7M/9)                                  Em7
         Sinto muito se não fui feito um sonho seu

G
  Mas sempre fica alguma coisa
Alguma roupa pra buscar
    F5(7M/9)                      Em7
Eu posso afastar a mesa quando você precisar

[Refrão]

          Am7              G/B  C9
Sei que amores imperfeitos
         D5(9)        G
São as flores da estação

( G  F5(7M/9) )

Violão 2
E|------------------------------------------|
B|------------------------------------------|
G|-5/7\5-4-5-4---------------------5-4-5/7~-|
D|-------------7-5---5-7b8r7-5--------------|
A|-----------------7-----------7-8----------|
E|------------------------------------------|

Violão 2

 Am                 C          D5(9)     G
E|---------0-----------------------------3--|
B|-1-----1-------0--1----1-----3--3------3--|
G|-2---2------2--0--0------0---2-----2---0--|
D|-2----------2--0--2----------0---------0--|
A|-0----------0--2--3--3-----------------2--|
E|---------------------------------------3--|
E|------------------------------------------|

[Primeira Parte Com Variação]

G
  Eu não quero ver você passar a noite em claro
F5(7M/9)
         Sinto muito se não fui
          Em7
Seu mais raro amor

G
  E quando o dia terminar, e quando o sol se inclinar
    F5(7M/9)                     Em7
Eu posso pôr uma toalha e te servir o jantar

[Refrão]

          Am7              G/B  C9
Sei que amores imperfeitos
         D5(9)        G
São as flores da estação

E|---7------7------7------7-----5-----------|
B|-----8------8--------8----8-----8---------|
G|-7------7------7---7--------7-----7-------|
D|------------------------------------------|
A|------------------------------------------|
E|------------------------------------------|

E|-7-----7-----7-----7-----7----------------|
B|---8-----8-----8-----8-----8--------------|
G|-----7-----7-----7-----7-----7------------|
D|------------------------------------------|
A|------------------------------------------|
E|------------------------------------------|

   Am          G
E|------0---------0-----0-------------------|
B|-1------1----3----3-----3-----------------|
G|-2--------2--0------0-----0---------------|
D|-2-----------0----------------------------|
A|-0--0-------------------------------------|
E|-------------3----------------------------|

Am7
    Mentira se eu disser
               G
Que não penso mais em você

[Segunda Parte]

Violão 2
E|--------------------------10--------------|
B|------------------------------------------|
G|-5/7~-7/9~--12/14\-12\-10----7/9\-7\-5----|
D|------------------------------------------|
A|------------------------------------------|
E|------------------------------------------|

E|------------------------------------------|
B|------------------------------------------|
G|-2/5--2/5/7--7/9--5/7---------------------|
D|------------------------------------------|
A|------------------------------------------|
E|------------------------------------------|

Dm7                        C9
    Quantas páginas o amor    já mereceu
      Gm7(9)                
Os filósofos não dizem nada
C9
   Que eu não possa dizer

Dm7                          
    Quantos versos sobre nós
C9
   Eu já guardei
         Gm7(9)                Bb5(9)
Deixa a luz daquela sala acesa
      C9          G  
E me peça pra voltar

( F5(7M/9)  G  F5(7M/9) )

[Primeira Parte]

G
  Não precisa me lembrar, não vou fugir de nada
F5(7M/9)                                  Em7
         Sinto muito se não fui feito um sonho seu

[Refrão]

          Am7              G/B  C9
Sei que amores imperfeitos
         D5(9)        G
São as flores da estação
Am7
    Mentira se eu disser
               G
Que não penso mais em você

[Segunda Parte]

Dm7                        C9
    Quantas páginas o amor    já mereceu
      Gm7(9)                
Os filósofos não dizem nada
C9
   Que eu não possa dizer

Dm7                          
    Quantos versos sobre nós
C9
   Eu já guardei
         Gm7(9)                Bb5(9)
Deixa a luz daquela sala acesa
      C9          G  
E me peça pra voltar

Violão 2
E|------------------------------------------|
B|------------------------------------------|
G|-5/7\5-4-5-4------------------------------|
D|-------------7-5---5-7b8r7-5--------------|
A|-----------------7-----------7------------|
E|------------------------------------------|

[Refrão]

          Am7              G/B  C9
Sei que amores imperfeitos
         D5(9)        G
São as flores da estação
          Am7              G/B  C9
Sei que amores imperfeitos
         D5(9)        G
São as flores da estação

Violão 2
E|---7------7------7------------------------|
B|-----8------8-----------------------------|
G|-7------7------7--------------------------|
D|------------------------------------------|
A|------------------------------------------|
E|------------------------------------------|

E|---7------7------7------7-----5-----------|
B|-----8------8--------8----8-----8---------|
G|-7------7------7---7--------7-----7-------|
D|------------------------------------------|
A|------------------------------------------|
E|------------------------------------------|

E|-7------7-----7---------------------------|
B|---8------8-------------------------------|
G|-----7------7-----------------------------|
D|------------------------------------------|
A|------------------------------------------|
E|------------------------------------------|
Composição de Chico Amaral / Samuel Rosa
690.073 exibições
  • Simplificar cifra
    • ½ Tom
    • A
    • Bb
    • B
    • C
    • Db
    • D
    • Eb
    • E
    • F
    • F#
    • G
    • Ab
  • Adicionar à lista

    0 comentários

    Ver todos os comentários

    Conseguiu tocar?

    24 Tocaram 2 Ainda não

    Grave um vídeo tocando Amores Imperfeitos e nos envie!

    00:00 / 00:00
    Outros vídeos desta música
    Repetir Qualidade Automático
    Outros vídeos desta música
    00:00 / 00:00
    Automático
    Capítulos
    • Início
    • Tocando a música
    • Acordes Introdução e Primeira Parte (Violão 1)
    • Acordes Introdução e Primeira Parte (Violão 2)
    • Tocando Introdução e Primeira Parte
    • Ensinando Introdução: Violão 1
    • Ensinando ritmo da música
    • Ensinando Introdução: Violão 2
    • Ensinando Primeira Parte: Violão 2
    • Ensinando Refrão: Violão 2
    • Acordes da Segunda Parte
    • Tocando Segunda Parte
    • Ensinando Repetições: Violão 2
    • Ensinando Segunda Parte: Violão 2
    • Ensinando ritmo da Segunda Parte
    • Tocando trecho: Final
    • Ensinando Final: Violão 2
    • Ensinando ritmo final
    • Encerramento

    Cifra Club Pro

    Aproveite o Cifra Club com benefícios exclusivos e sem anúncios
    Cifra Club Pro
    Aproveite o Cifra Club com benefícios exclusivos e sem anúncios
    OK