Cifra Club

Canção Noturna

Skank

Cifra: Principal (violão e guitarra)
tom: Db (forma dos acordes no tom de C) Capotraste na 1ª casa
[Intro] Am  G  Am  G
        Am  G  Am  G

[Solo 1]

Parte 1 De 3

E|------------------------------------------|
B|------------------------------------------|
G|-6h8-8-8-8-8--6-6h8-8-8-8-8--6h8-6-5------|
D|------------------------------------------|
A|------------------------------------------|
E|------------------------------------------|

Parte 2 De 3

E|------------------------------------------|
B|------------------------------------------|
G|-6h8-8-8-8-8--6h8-8-8-8-8-8--8b10r8-6\5---|
D|------------------------------------------|
A|------------------------------------------|
E|------------------------------------------|

Parte 3 De 3

E|------6-----------------4-----------------|
B|--------------------------1h2-1-----------|
G|-8b10---6-6/8\6-6-6b8r6-------------------|
D|------------------------------------------|
A|------------------------------------------|
E|------------------------------------------|

[Primeira Parte]

Am
   Misterioso luar de fronteira

Derramando no espinhaço quase um mar
G
  Clareando a aduana
      Am
Venezuela donde estás
                           C                  G
Não sei por que nessas esquinas vejo o seu olhar

         Am
Minha camisa estampada com o rosto de Elvis
G                             Am
  A minha guitarra é minha razão

Minha sorte anunciada misteriosamente
   G
A lua sobre nada

[Refrão]

              Am           C                  G
Não sei por que nessas esquinas vejo o seu olhar
              Am           C                  G
Não sei por que nessas esquinas vejo o seu olhar
   Dm                                C
Espalhe por aí boatos de que eu ficarei aqui
   Dm                                C
Espalhe por aí boatos de que eu ficarei aqui

[Solo 2] Am  G

  Am              G
E|---1-1------------------------------------|
B|-2-----4-4/6-6~----1-1-1-1-1h2-1----------|
G|-3---------------1---------------1--------|
D|-3---------------1------------------------|
A|-1---------------3------------------------|
E|-----------------4------------------------|

[Segunda Parte]

         Am
Vem mamacita doida e meiga
                    G
Sempre o âmago dos fatos
                             Am
Minha guerra e as flores do cactos
                     G
Poema, cinema, trincheira
              Am           C                  G
Não sei por que nessas esquinas vejo o seu olhar

    Am                             G
Um cego na fronteira, filósofo da zona
                        Am
Me disse que era um dervixe
                      G
Eu disse pra ele camarada
                                         Am   G
Eu acredito em tanta coisa que não vale nada

[Refrão]

              Am           C                  G
Não sei por que nessas esquinas vejo o seu olhar
              Am           C                  G
Não sei por que nessas esquinas vejo o seu olhar
   Dm                                C
Espalhe por aí boatos de que eu ficarei aqui
   Dm                                C
Espalhe por aí boatos de que eu ficarei aqui

[Solo 3] Am  G  Am  G  F7M  G

Parte 1 De 4

  Am                 G
E|----1-1-----------------------------------|
B|-2------4-4/6-6-6~----1-1-1-1-1h2-1-------|
G|-3------------------1---------------1-----|
D|-3------------------1---------------------|
A|-1------------------3---------------------|
E|--------------------4---------------------|

Parte 2 De 4

E|----1-1-----------------------------------|
B|-2------4-4/6-6-6~----1-1-1-1-1h2-1-------|
G|-3------------------1---------------1-----|
D|-3------------------1---------------------|
A|-1------------------3---------------------|
E|--------------------4---------------------|

Parte 3 De 4

E|---1-----4-----1-----1-----1--------------|
B|-----2-----2-----2-----2-----2------------|
G|-3-----3-----3-----3-----3-----3-3/5------|
D|------------------------------------------|
A|------------------------------------------|
E|------------------------------------------|

Parte 4 De 4

E|-1-----1-----1-----1-----1----------------|
B|---4-----4-----4-----4-----4--------------|
G|-----5-----5-----5-----5-----5------------|
D|------------------------------------------|
A|------------------------------------------|
E|------------------------------------------|

[Refrão Final]

              Am           C                  G
Não sei por que nessas esquinas vejo o seu olhar
              Am           C                  G
Não sei por que nessas esquinas vejo o seu olhar

Velejando, viajando, sol quarando
        Am                    C
Meu querer, meu dever, meu devir
               G
E eu aqui a comer poeira

Que o sol deixará

              Am           C                  G
Não sei por que nessas esquinas vejo o seu olhar
              Am           C                  G
Não sei por que nessas esquinas vejo o seu olhar

[Final] Am  C  G  
        Am  C  G  
        Am  C  G
00:00 / 00:00
Outros vídeos desta música
Repetir
Outros vídeos desta música
Composição de Chico Amaral / Lelo Zanetti
Colaboração e revisão:
676.181 exibições
  • Simplificar cifra
    • ½ Tom
    • A
    • Bb
    • B
    • C
    • Db
    • D
    • Eb
    • E
    • F
    • F#
    • G
    • Ab
  • Adicionar à lista

    0 comentários

    Ver todos os comentários

    Conseguiu tocar?

    102 Tocaram 7 Ainda não

    Grave um vídeo tocando Canção Noturna e nos envie!

    Entre para oCifra Club PRO

    Tenha acesso a benefícios exclusivos no App e no Site

    • Chega de anúncios

    • Prioridade de compra em lançamentos

    • Mais recursos no app do Afinador

    • Atendimento Prioritário

    • Descontos nos produtos Cifra Club

    • Ajude a produzir mais conteúdo

    00:00 / 00:00
    Capítulos
    • Início
    • Tocando a música
    • Acordes da música
    • Tocando trecho da música
    • Ensinando ritmo da música
    • Tocando trecho final
    • Tocando Solo da Introdução (Solo 1)
    • Ensinando Solo 1
    • Tocando Solo 2
    • Ensinando Solo 2
    • Tocando Solo 3
    • Ensinando Solo 3
    • Encerramento

    Cifra Club Pro

    Aproveite o Cifra Club com benefícios exclusivos e sem anúncios
    Cifra Club Pro
    Aproveite o Cifra Club com benefícios exclusivos e sem anúncios
    OK