Cifra Club

Aprenda

Mil Acasos

Skank

Cifra: Principal (violão e guitarra)
tom: D
Intro: D  Bm  D  Bm

Solo Intro:

E|-------10-10-10--------10-10-10---------------------|
B|-------10-10-10--------10-10-10---------------------|
G|----------------------------------------------------|
D|-7-9-9-----------7-9-9----------7-9-9--7-9-9--------|
A|----------------------------------------------------|
E|----------------------------------------------------|

Primeira Parte:

 D                       Bm
Mil acasos me levam a você
D                            Bm
  O sábado, o signo, o carnaval
G
  Mil acasos me tomam pela mão
A
  A feira, o feriado nacional

D                           Bm
  Mil acasos me levam a perder
D                        Bm
  O senso, o ritmo habitual
G
  Mil acasos me levam a você
A
  No início, no meio ou no final
G
  Me levam a você
A
  De um jeito desigual

D                           Bm
  Mil acasos apontam a direção
D                           Bm
  Desvios de rota é tão normal
G
  Mil acasos me levam a você
A
  No mundo concreto ou virtual
G
  Me levam a você
A
  De um jeito desigual

Segunda Parte:

Em
   Quem sabe, então, por um acaso
    Bm
Perdido no tempo ou no espaço
Bb
   Seus passos queiram 
               A
Se juntar aos meus
Bb
   Seus braços queiram 
               A
Se juntar aos meus

Base Solo: D  Bm  D  Bm

Solo:

Parte 1

E|----------------------------------------------------|
B|-5b7r5-3~--5b7r5-5b7r5-3~---------------------------|
G|---------------------------4--4-6-7-6-4-2-----------|
D|----------------------------------------------------|
A|----------------------------------------------------|
E|----------------------------------------------------|

Parte 2

E|----------------------------------------------------|
B|-5b7r5-3~--0-5b7r5-5b7r5-3~--0-3-5b7----------------|
G|--------------------------------------4-6-7-6-------|
D|----------------------------------------------4-4/5-|
A|----------------------------------------------------|
E|----------------------------------------------------|

G
  Mil acasos me levam a você
A
  No ínicio no meio ou no final

Terceira Parte:

D                          Bm
  Mil acasos me levam por aí
D                              Bm
  Na espuma do tempo, no temporal
G
  Mil acasos me dizem o que sou
A
  Ateu praticante, ocidental
G
  Me levam a você
A
  De um jeito desigual

Segunda Parte:

Em
   Quem sabe, então, por um acaso
    Bm
Perdido no tempo ou no espaço
Bb
   Seus passos queiram 
               A
Se juntar aos meus
Bb
   Seus braços queiram 
               A   D
Se juntar aos meus
Composição de Chico Amaral / Samuel Rosa
465.999 exibições
  • Simplificar cifra
    • ½ Tom
    • A
    • Bb
    • B
    • C
    • Db
    • D
    • Eb
    • E
    • F
    • F#
    • G
    • Ab
  • Adicionar à lista

    0 comentários

    Ver todos os comentários

    Conseguiu tocar?

    57 Tocaram 3 Ainda não

    Grave um vídeo tocando Mil Acasos e nos envie!

    00:00 / 00:00
    Outros vídeos desta música
    Repetir Qualidade Automático
    Outros vídeos desta música
    00:00 / 00:00
    Automático
    Capítulos
    • Tocando a música
    • Dicas Iniciais / Equipamentos
    • Acordes da música
    • Tocando Introdução e Primeira Parte
    • Ritmo da música
    • Acordes da Segunda Parte
    • Tocando a Segunda Parte
    • Ritmo da Segunda Parte
    • Dicas 2
    • Tocando Solo da Introdução
    • Solo Introdução
    • Dicas 3
    • Tocando o Solo
    • Solo - Parte 1 de 2
    • Solo - Parte 2 de 2
    • Encerramento
    • Ficha Técnica

    Cifra Club Pro

    Aproveite o Cifra Club com benefícios exclusivos e sem anúncios
    Cifra Club Pro
    Aproveite o Cifra Club com benefícios exclusivos e sem anúncios
    OK